Oops, an error
Loading. Please wait.

Bite bass

version 1
version 1

Whole song

Interactive

50 views 1 this week
no commentswrite comment
1 2 3 4 5
3 more votes to show rating
add to favorites
×
Save as Personal and add changes to this tab that will be seen only by you. Learn more ›
×
You can save this tab as Personal to edit and correct it or add notes. All changes will be seen only by you. Learn more »
launch autoscroll
font size
0
reset
guitar tuner
edit
Autoscroll
slow
fast
+/-
esc
set tempo
stop
Author
Difficulty
-------------------------------------------------------------------------------
			     BITE - Jesse James Dupree & Dixie Inc.
-------------------------------------------------------------------------------

Tabbed By : Isaias Garcia (TexasFury)

URL: http://www.jessejamesdupree.com/

Tuning: Standard


     Intro - m.2                                                                     
     H           Q    E  E     Q    E   E  E  E   E  E     E  E  E  S S E  E  E  E   
G||-------------------------|---------------------------|---------------------------|
D||-------------------------|---------------------------|---------------------------|
A||-------------------------|---------------------------|---------------------------|
E||-------------------------|--5----L\---------------0--|---------------------------|
B||----------------------7--|-----------5--7--L\-----5--|--7--7-----5-5-7--7--5--7--|


  Q    E   E  Q     E  E     E  E  E  S S E  E  E  E     Q    E   E  Q     E  E   
--------------------------|---------------------------|--------------------------|
--------------------------|---------------------------|--------------------------|
--------------------------|---------------------------|--------------------------|
--5----L\--0--2\-------0--|--2--2-----0-0-2--2--0--2--|--5----L\--0--2\-------0--|
--------------------------|---------------------------|--------------------------|


  E  E  E  S S E  E  E  E     Q    E   E  E  E   E  E     E  E  E  S S E  E  E  E   
---------------------------|---------------------------|---------------------------|
---------------------------|---------------------------|---------------------------|
---------------------------|---------------------------|---------------------------|
--2--2-----0-0-2--2--0--2--|--5----L\--0--2--L\-----0--|--2--2-----0-0-2--2--0--2--|
---------------------------|---------------------------|---------------------------|


  Q    E   E  E  E   E  E     E  E  E  S S E  E  E  E     Q    E   E  E  E   E  E   
---------------------------|---------------------------|---------------------------|
---------------------------|---------------------------|---------------------------|
---------------------------|---------------------------|---------------------------|
--5----L\--0--2--L\-----0--|--2--2-----0-0-2--2--0--2--|--5----L\--0--2--L\-----0--|
---------------------------|---------------------------|---------------------------|


  E  E  E  S S E  E  E  E     Q    E  E  E  E  E  E     H        E  E  E  E   
---------------------------|-------------------------|-----------------------|
---------------------------|-------------------------|-----------------------|
---------------------------|-------5-----7--7--5-----|-----------------------|
--2--2-----0-0-2--2--0--2--|--7-------7-----------5--|--L--------3--3--3--0--|
---------------------------|-------------------------|-----------------------|


  Q    E   E  E  E   E  E     E  E  E  S S E  E  E  E     Q    E   E  E  E   E  E   
---------------------------|---------------------------|---------------------------|
---------------------------|---------------------------|---------------------------|
---------------------------|---------------------------|---------------------------|
--5----L\--0--2--L\-----0--|--2--2-----0-0-2--2--0--2--|--5----L\--0--2--L\-----0--|
---------------------------|---------------------------|---------------------------|


  E  E  E  S S E  E  E  E     Q    E  E  E  E  E  E     H        E  E  E  E   
---------------------------|-------------------------|-----------------------|
---------------------------|-------------------------|-----------------------|
---------------------------|-------5-----7--7--5-----|-----------------------|
--2--2-----0-0-2--2--0--2--|--7-------7-----------5--|--L--------3--3--3--0--|
---------------------------|-------------------------|-----------------------|


                                                Chorus 1                          
  Q    E  E  E  E  E  E     W                   E        E  E   E   E  E   E  E   
-------------------------|-------------------|-----------------------------------|
-------------------------|-------------------|-----------------------------------|
-------------------------|-------------------|-----------------------------------|
--2----2--2--2--2--2--0--|--L----------------|--7--------7--7~--7~--5--7~--7--7--|
-------------------------|-------------------|-----------------------------------|


  E  E  E  E  E  E  E  E     E  E  E  E  E  E  E  E     E  E  E  E  E  E  E  E   
--------------------------|--------------------------|--------------------------|
--------------------------|--------------------------|--------------------------|
--------------5-----------|--------------5-----------|--------------5-----------|
--5--7--7--7-----7--5--7--|--5--7--7--7-----7--5--7--|--5--7--7--7-----7--5--7--|
--------------------------|--------------------------|--------------------------|


  E  E  E  E  E  E  E  E     E  E  E  E  E  E  E  E     E  E  E  E  E  E  E  E   
--------------------------|--------------------------|--------------------------|
--------------------------|--------------------------|--------------------------|
--------------------------|--------------5-----------|--5-----------5-----------|
--5--7--7--7--5--7--7--7--|--5--7--7--7-----7--5--7--|-----7--5--7-----7--5--5--|
--------------------------|--------------------------|--------------------------|


                             Verse 2                                                  
  E  E  E  E  E  E  E  E     Q       E   E  E  E   E  E     E  E  E  S S E  E  E  E   
--------------------------|------------------------------|---------------------------|
--------------------------|------------------------------|---------------------------|
--------------------------|------------------------------|---------------------------|
--L--5--5--5--5--5--5--5--|--5-------L\--0--2--L\-----0--|--2--2-----0-0-2--2--0--2--|
--------------------------|------------------------------|---------------------------|


  Q    E   E  E  E   E  E     E  E  E  S S E  E  E  E     Q    E   E  E  E   E  E   
---------------------------|---------------------------|---------------------------|
---------------------------|---------------------------|---------------------------|
---------------------------|---------------------------|---------------------------|
--5----L\--0--2--L\-----0--|--2--2-----0-0-2--2--0--2--|--5----L\--0--2--L\-----0--|
---------------------------|---------------------------|---------------------------|


  E  E  E  S S E  E  E  E     Q    E   E  E  E   E  E     E  E  E  S S E  E  E  E   
---------------------------|---------------------------|---------------------------|
---------------------------|---------------------------|---------------------------|
---------------------------|---------------------------|---------------------------|
--2--2-----0-0-2--2--0--2--|--5----L\--0--2--L\-----0--|--2--2-----0-0-2--2--0--2--|
---------------------------|---------------------------|---------------------------|


  Q    E  E  E  E  E  E     H        E  E  E  E     Q    E  E  E  E  E  E     W                 
-------------------------|-----------------------|-------------------------|-------------------|
-------------------------|-----------------------|-------------------------|-------------------|
-------5-----7--7--5-----|-----------------------|-------------------------|-------------------|
--7-------7-----------5--|--L--------3--3--3--0--|--2----2--2--2--2--2--0--|--L----------------|
-------------------------|-----------------------|-------------------------|-------------------|


  Chorus 2                                                                             
  E        E  E  E  E  E  E  E     E  E  E  E  E  E  E  E     E  E  E  E  E  E  E  E   
--------------------------------|--------------------------|--------------------------|
--------------------------------|--------------------------|--------------------------|
--------------------------------|--------------5-----------|--------------5-----------|
--7--------7--7--7--5--7--7--7--|--5--7--7--7-----7--5--7--|--5--7--7--7-----7--5--7--|
--------------------------------|--------------------------|--------------------------|


  E  E  E  E  E  E  E  E     E  E  E  E  E  E  E  E     E  E  E  E  E  E  E  E   
--------------------------|--------------------------|--------------------------|
--------------------------|--------------------------|--------------------------|
--------------5-----------|--------------------------|--------------5-----------|
--5--7--7--7-----7--5--7--|--5--7--7--7--5--7--7--7--|--5--7--7--7-----7--5--7--|
--------------------------|--------------------------|--------------------------|


  E  E  E  E  E  E  E  E     E  E  E  E  E  E  E  E     Q    E   E  E  E   E  E   
--------------------------|--------------------------|---------------------------|
--------------------------|--------------------------|---------------------------|
--5-----------5-----------|--------------------------|---------------------------|
-----7--5--7-----7--5--5--|--L--5--5--5--5--5--5--5--|--5----L\--0--2--L\-----0--|
--------------------------|--------------------------|---------------------------|


                              Bridge                                           
  E  E  E  S S E  E  E  E     E      E  Q    Q.     E     H        Q    E  E   
---------------------------|---------------------------|----------------------|
---------------------------|---------------------------|-----------7----7--7--|
---------------------------|---------9-----------------|----------------------|
--2--2-----0-0-2--2--0--2--|--7---------7----3------4--|--L-------------------|
---------------------------|---------------------------|----------------------|


  H        Q.     E     Q    E  E  E   E  E   E     H        Q.     E     Q    E  E  H         
---------------------|-------------9--11--9------|---------------------|----------------------|
--9--------5------6--|--L----L--6------------12--|--9--------5------6--|--L----L--6--7--------|
---------------------|---------------------------|---------------------|----------------------|
---------------------|---------------------------|---------------------|----------------------|
---------------------|---------------------------|---------------------|----------------------|


                                                    Guitar Solo                      
  H        Q.     E     Q    E  E  Q       Q        E           E  E  E  Q    E  E   
---------------------|---------------------------|----------------------------------|
---------------------|---------------------------|----------------------------------|
---------------------|---------------------------|-------------------------------5--|
--7--------3------4--|--L----L--4--5----9g15\----|--7-----------7--7--5--7----------|
---------------------|---------------------------|----------------------------------|


  E  E  E  E  E  E  E  E     Q    E  E  Q    E  E     E  E  E  E  E    E  E  E   
--------------------------|------------------------|----------------------------|
--------------------------|------------------------|----------------------------|
--L--5--5--7--L--6--5--4--|---------------------5--|--L--5--5--7--L--5g7--5--4--|
--------------------------|--7----5--7--7----------|----------------------------|
--------------------------|------------------------|----------------------------|


  Q    E  E  Q    E  E     E  E  E  E  E    E  E  E     Q    E  E  Q    E  E     E  E  E  E   
------------------------|----------------------------|------------------------|--------------|
------------------------|----------------------------|------------------------|--------------|
---------------------5--|--L--5--5--7--L--5g7--5--4--|---------------------5--|--L--5--5--7--|
--7----5--7--7----------|----------------------------|--7----5--7--7----------|--------------|
------------------------|----------------------------|------------------------|--------------|


                                                        Chorus 3                       
  E  E  E  E  E  E  E  E     E  E  E  E  E  E  E  E     E        E  E  E  E  E  E  E   
--------------------------|--------------------------|--------------------------------|
--------------------------|--------------------------|--------------------------------|
--L--7--7--7--------------|--------------------------|--------------------------------|
--------------0--0--0--0--|--0--0--0--0--0--0--0--0--|--7--------7--7--7--5--7--7--7--|
--------------------------|--------------------------|--------------------------------|


  E  E  E  E  E  E  E  E     E  E  E  E  E  E  E  E     E  E  E  E  E  E  E  E   
--------------------------|--------------------------|--------------------------|
--------------------------|--------------------------|--------------------------|
--------------5-----------|--------------5-----------|--------------5-----------|
--5--7--7--7-----7--5--7--|--5--7--7--7-----7--5--7--|--5--7--7--7-----7--5--7--|
--------------------------|--------------------------|--------------------------|


  E  E  E  E  E  E  E  E     E  E  E  E  E  E  E  E     E  E  E  E  E  E  E  E   
--------------------------|--------------------------|--------------------------|
--------------------------|--------------------------|--------------------------|
--------------------------|--------------5-----------|--5-----------5-----------|
--5--7--7--7--5--7--7--7--|--5--7--7--7-----7--5--7--|-----7--5--7-----7--5--5--|
--------------------------|--------------------------|--------------------------|


  E  E  E  E  E  E  E  E     E  E  E  E  E  E  E  E     E  E  E  E  E  E  E  E   
--------------------------|--------------------------|--------------------------|
--------------------------|--------------------------|--------------------------|
--------------------------|--------------------------|--------------5-----------|
--L--5--5--5--5--5--5--5--|--7--7--7--7--5--7--7--7--|--5--7--7--7-----7--5--7--|
--------------------------|--------------------------|--------------------------|


  E  E  E  E  E  E  E  E     E  E  E  E  E  E  E  E     E  E  E  E  E  E  E  E   
--------------------------|--------------------------|--------------------------|
--------------------------|--------------------------|--------------------------|
--------------5-----------|--------------5-----------|--------------------------|
--5--7--7--7-----7--5--7--|--5--7--7--7-----7--5--7--|--5--7--7--7--5--7--7--7--|
--------------------------|--------------------------|--------------------------|


  E  E  E  E  E  E  E  E     E  E  E  E  E  E  E  E     W                 
--------------------------|--------------------------|-------------------|
--------------------------|--------------------------|-------------------|
--------------5-----------|--5-----------5-----------|-------------------|
--5--7--7--7-----7--5--7--|-----7--5--7-----7--5--5--|--L----------------|
--------------------------|--------------------------|-------------------|


  Outro                                                                      
  S     S S S S S S  S S S S S S S S S    S  S S S S S S  S S S S S S S S S  
---------------------------------------|------------------------------------|
---------------------------------------|------------------------------------|
---------------------------------------|------------------------------------|
---------------------------------------|------------------------------------|
--5h----7-7-7-7-7-5h-7-L-7-7-7-5-7-7-7-|--5h-7-7-7-7-7-5h-7-L-7-7-7-5-7-7-7-|


  S  S S S S S S  S S S S S S S S S    S  S S S S S S  S S S S S S S S S  
------------------------------------|------------------------------------|
------------------------------------|------------------------------------|
------------------------------------|------------------------------------|
------------------------------------|------------------------------------|
--5h-7-7-7-7-7-5h-7-L-7-7-7-5-7-7-7-|--5h-7-7-7-7-7-5h-7-L-7-7-7-5-7-7-7-|


  S  S S S S S S  S S S S S S S S S    S  S S S S S S  S S S S S S S S S  
------------------------------------|------------------------------------|
------------------------------------|------------------------------------|
------------------------------------|------------------------------------|
------------------------------------|------------------------------------|
--5h-7-7-7-7-7-5h-7-L-7-7-7-5-7-7-7-|--5h-7-7-7-7-7-5h-7-L-7-7-7-5-7-7-7-|


  S  S S S S S S  S S S S S S S S S    S  S S S S S S  S S S S S S S S S  
------------------------------------|------------------------------------|
------------------------------------|------------------------------------|
------------------------------------|------------------------------------|
------------------------------------|------------------------------------|
--5h-7-7-7-7-7-5h-7-L-7-7-7-5-7-7-7-|--5h-7-7-7-7-7-5h-7-L-7-7-7-5-7-7-7-|


  S  S S S S S S  S S S S S S S S S    S  S S S S S S  S S S S S S S S S  
------------------------------------|------------------------------------|
------------------------------------|------------------------------------|
------------------------------------|------------------------------------|
------------------------------------|------------------------------------|
--5h-7-7-7-7-7-5h-7-L-7-7-7-5-7-7-7-|--5h-7-7-7-7-7-5h-7-L-7-7-7-5-7-7-7-|


  Begin fade                                                                      
  S          S S S S S S  S S S S S S S S S    S  S S S S S S  S S S S S S S S S  
--------------------------------------------|------------------------------------|
--------------------------------------------|------------------------------------|
--------------------------------------------|------------------------------------|
--------------------------------------------|------------------------------------|
--5h---------7-7-7-7-7-5h-7-L-7-7-7-5-7-7-7-|--5h-7-7-7-7-7-5h-7-L-7-7-7-5-7-7-7-|


  S  S S S S S S  S S S S S S S S S    S  S S S S S S  S S S S S S S S S  
------------------------------------|------------------------------------|
------------------------------------|------------------------------------|
------------------------------------|------------------------------------|
------------------------------------|------------------------------------|
--5h-7-7-7-7-7-5h-7-L-7-7-7-5-7-7-7-|--5h-7-7-7-7-7-5h-7-L-7-7-7-5-7-7-7-|


  S  S S S S S S  S S S S S S S S S    S  S S S S S S  S S S S S S S S S  
------------------------------------|------------------------------------|
------------------------------------|------------------------------------|
------------------------------------|------------------------------------|
------------------------------------|------------------------------------|
--5h-7-7-7-7-7-5h-7-L-7-7-7-5-7-7-7-|--5h-7-7-7-7-7-5h-7-L-7-7-7-5-7-7-7-|


  S  S S S S S S  S S S S S S S S S    S  S S S S S S  S S S S S S S S S  
------------------------------------|------------------------------------|
------------------------------------|------------------------------------|
------------------------------------|------------------------------------|
------------------------------------|------------------------------------|
--5h-7-7-7-7-7-5h-7-L-7-7-7-5-7-7-7-|--5h-7-7-7-7-7-5h-7-L-7-7-7-5-7-7-7-|


  S  S S S S S S  S S S S S S S S S    S  S S S S S S  S S S S S S S S S  
------------------------------------|------------------------------------|
------------------------------------|------------------------------------|
------------------------------------|------------------------------------|
------------------------------------|------------------------------------|
--5h-7-7-7-7-7-5h-7-L-7-7-7-5-7-7-7-|--5h-7-7-7-7-7-5h-7-L-7-7-7-5-7-7-7-|


  S  S S S S S S  S S S S S S S S S    S  S S S S S S  S S S S S S S S S  
------------------------------------|------------------------------------|
------------------------------------|------------------------------------|
------------------------------------|------------------------------------|
------------------------------------|------------------------------------|
--5h-7-7-7-7-7-5h-7-L-7-7-7-5-7-7-7-|--5h-7-7-7-7-7-5h-7-L-7-7-7-5-7-7-7-|


  S  S S S S S S  S S S S S S S S S    S  S S S S S S  S S S S S S S S S   
------------------------------------|------------------------------------||
------------------------------------|------------------------------------||
------------------------------------|------------------------------------||
------------------------------------|------------------------------------||
--5h-7-7-7-7-7-5h-7-L-7-7-7-5-7-7-7-|--5h-7-7-7-7-7-5h-7-L-7-7-7-5-7-7-7-||




Duration Legend
---------------
W - whole
H - half
Q - quarter
E - 8th
S - 16th
T - 32nd
X - 64th
. - note dotted
|-n-|  - n-tuplets


Tablature Legend
----------------
L - tied note
x - dead note
g - grace note
(n) - ghost note
> - accentuded note
NH - natural harmonic
AH - artificial harmonic
TH - tapped harmonic
SH - semi harmonic
PH - pitch harmonic
h - hammer on
p - pull off
b - bend
br - bendRelease
pb - preBend
pbr - preBendRelease
brb - bendReleaseBend
\n/ - tremolo bar dip
\n - tremolo bar dive
-/n - tremolo bar Release up
/n\ - tremolo bar inverted dip
/n - tremolo bar return
-\n - tremolo bar Release down
S - shift slide
s - legato slide
/ -  slide into from below or out of upwards
\ -  slide into from above or out of downwards
~ - vibrato
W - wide vibrato
tr - trill
TP - tremolo picking
T - tapping
S - slap
P - pop
< - fade in
^ - brush up
v - brush down

Check my other tabs at for Guitar Pro, Powertab, and guitar/bass txt at 
http://profile.ultimate-guitar.com/TexasFury/contributions/

            
            
Suggest correction
Creating personal tab
Creating personal tab
You can edit any tab online and save it as your Personal.

You can edit, replace or remove any tab part or add personal notes – all changes will be seen only by you.

Personal tabs can be accessed anytime from any device, even offline.
Learn more »
Give kudos to tab author, rate the tab!
1 2 3 4 5
comments
print report bad tab
guest
You may want to rate the tab now too:
select rating
Wanna post a correction for this tab? Suggest correction