Oops, an error
Loading. Please wait.

Casper tab

673 views 9 this week
no commentswrite comment
1 2 3 4 5
3 more votes to show rating
add to favorites
×
Save as Personal and add changes to this tab that will be seen only by you. Learn more ›
×
You can save this tab as Personal to edit and correct it or add notes. All changes will be seen only by you. Learn more »
launch autoscroll
font size
0
reset
how to read this tab
guitar tuner
edit
Autoscroll
slow
fast
+/-
esc
set tempo
stop
This song comprises of two parts (verse and chorus), and basically one fingerstyle pattern, but a lot of 
variation. 
So, to play it in her style you will have to listen to it quite carefully. This is in standard tuning 1/2 step
down.

I tried to figure out the lyrics, but it's hard to understand correctly (and I am german btw).

 



Throughout Song, the thumb plays the bass on ONE, TWO/HALF and FOUR. The rest is played freely.

4/4

Verse:

Bmadd4            Asus4             G

-------0---------.-----------------.-----------------.-----------------.
-3---3---3-------.-----3-----2-----.-------3---------.-------0---------.
---2-------2---2-.---2-----2-----2-.-----0-----0---0-.-----0-----0---0-.
-------2-----2---.-------2-----2---.---0---0-----0---.---0-------------.
-2---------------.-0---------------.-----------------.-------2-----2---.
-----------------.-----------------.-3---------------.-3---------------.


Variations:

Bm                Am9                G                 G*

-----------------.-----------------.-----------------.-----------------.
-----0-3---0-----.-----0-1---------.-------3---------.-------0-----0---.
---2-----------2-.---2-------2---2-.-----0-----0---0-.-----0-----0---0-.
---0-------------.-------------2---.---0---------0---.---0-------------.
-2-----2-----2---.-0-----0-----0---.-------2-----2---.-------3-----3---.
-----------------.-----------------.-3---------------.-3---------------.


Chorus:

D6                                  G*

-------2---------.                 .-----------------.
-----0-----0---0-.   rep. x2       .-------0-----0---.   rep. x2
---2---------2---.                 .-----0-----0---0-.
-0-----0-----0---.                 .---0-------------.
-----------------.                 .-------3-----3---.
-----------------.                 .-3---------------.



End Chord: 

-0-
-3-
-0-
-0-
-3-
-3-




Verse:
Bmadd4            Asus4               G
       you know I walk the streets of gold

Bmadd4            Asus4          G
      and I can't find my baby's bones


       Bmadd4   Asus4       G
it was two      flus of the north

Bmadd4               Asus4             G
        that take me down to my lowest home


Chorus:

D6                           G*
  and you don't mind where I go

D6                                  G*
   somewhere in the wings I find my home

D6                       G*
It's made of willows and tin(?)

D6                G*
and I'm returning again


Verse: (with variation)


Bmadd4                  Am            G
      and my dreams are made of ghost skins

Bmadd4     Am                 G        
    when I wake up in my dark places

Bmadd4          Am          G
and I reach for the missing faces

Bmadd4         Am                 G
that take me down to my favourite ride


Chorus:


D6                  G
oh, I'm blossoming down

D6                  G
and I stay down here

D6                      G
when my dreams cloud my mind

D6                   G
to take me away this time



Repeat two times     


Ending: Repeat last measure (G*) then Strum Chord

            
            
Suggest correction
Creating personal tab
Creating personal tab
You can edit any tab online and save it as your Personal.

You can edit, replace or remove any tab part or add personal notes – all changes will be seen only by you.

Personal tabs can be accessed anytime from any device, even offline.
Learn more »
Give kudos to tab author, rate the tab!
1 2 3 4 5
comments
print report bad tab
guest
You may want to rate the tab now too:
select rating
Wanna post a correction for this tab? Suggest correction