Oops, an error
Loading. Please wait.

Domino tab

version 3
version 3

Whole song

Interactive

4,359 views 9 this week
no commentswrite comment
1 2 3 4 5
x 4
add to favorites
×
Save as Personal and add changes to this tab that will be seen only by you. Learn more ›
×
You can save this tab as Personal to edit and correct it or add notes. All changes will be seen only by you. Learn more »
launch autoscroll
font size
0
reset
how to read this tab
guitar tuner
edit
Autoscroll
slow
fast
+/-
esc
set tempo
stop
Author
Difficulty
Domino
Jessie J (Key of G)

x = muted scrape pick


Intro:


---x---x---x-----x-------x---x---x-----x---------|
---x---x---x-----x-------x---x---x-----x---------|
---x-7-x-7-x-5-5-x-5-5-5-x-4-x-4-x-5-5-x-5-5-5---|
---x-5-x-5-x-5-5-x-5-5-5-x-5-x-5-x-5-5-x-5-5-5---|
---x---x---x-----x-------x---x---x-----x---------|
---x---x---x-----x-------x---x---x-----x---------|

   D D D U D U U D U U D D D D U D U U D U U D  -----> Picking pattern.

Pre-chorus:

Cadd9                 A7                         Em            Gsus4

---x---0---x---0---x---0---0---x---0---0-0---x---0---x---0--x--3--3--x--3--3-3---|
---x---3---x---3---x---1---1---x---1---1-1---x---0---x---0--x--1--1--x--1--1-1---|
---x---0---x---0---x---0---0---x---0---0-0---x---0---x---0--x--0--0--x--0--0-0---|
---x---2---x---2---x---2---2---x---2---2-2---x---2---x---2--x--0--0--x--0--0-0---|
---x---3---x---3---x---0---0---x---0---0-0---x---2---x---2--x--x--x--x--x--x-x---|
---x-------x-------x-----------x-------------x---0---x---0--x--3--3--x--3--3-3---|

   D   D   D   U   D   U   U   D   U   U D   D   D   D   U  D  U  U  D  U  U D

Even though the rhythm is basically the same for the pre-chorus and the chorus, the
notes that the synth plays(if you have no synth player) in the parts of the chorus
come in slightly earlier than they do in the pre-chorus. Feel free to do this on
guitar. This is how I play it because I like the variation(also swapping some of the
scrape picking for an open strum which sounds nice) these changes are noted with
an * symbol and if you like this, note the change in up and down strokes:

Chorus:

Cadd9                 A7                         Em            Gsus4
                                             *       *  *  *  *                   *
---x---0---x---0---x---0---0---x---0---0-0---0---0---0--x--0--x--3--3--x--3--3-3--0-|
---x---3---x---3---x---1---1---x---1---1-1---0---0---0--x--0--x--1--1--x--1--1-1--0-|
---x---0---x---0---x---0---0---x---0---0-0---0---0---0--x--0--x--0--0--x--0--0-0--0-|
---x---2---x---2---x---2---2---x---2---2-2---0---2---2--x--2--x--0--0--x--0--0-0--0-|
---x---3---x---3---x---0---0---x---0---0-0---0---2---2--x--2--x--x--x--x--x--x-x--0-|
---x-------x-------x-----------x-------------0---0---0--x--0--x--3--3--x--3--3-3--0-|

   D   D   D   U   D   U   U   D   U   U D  (U)  D   D  D  U  D  U  U  D  U  U D  U

Cadd9                 A7                         Em            Gsus4             (Play 
only if not ending chorus)
   *                                         *       *  *  *  *                  *
---0---0---x---0---x---0---0---x---0---0-0---0---0---0--x--0--x--3-3--x--3--3-3--0-|
---3---3---x---3---x---1---1---x---1---1-1---0---0---0--x--0--x--1-1--x--1--1-1--0-|
---0---0---x---0---x---0---0---x---0---0-0---0---0---0--x--0--x--0-0--x--0--0-0--0-|
---2---2---x---2---x---2---2---x---2---2-2---0---2---2--x--2--x--0-0--x--0--0-0--0-|
---3---3---x---3---x---0---0---x---0---0-0---0---2---2--x--2--x--x-x--x--x--x-x--0-|
-----------x-------x-----------x-------------0---0---0--x--0--x--3-3--x--3--3-3--0-|

   D   D   D   U   D   U   U   D   U   U D  (U)  D   D (D)(U)(D) U U  D  U  U D  U



 This is what you can play for the bridge because it works well: holding these out


 Bridge:


 ------0-------0-------0------3---------|
 ------3-------1-------0------1---------|
 ------0-------0-------0------0---------|
 ------2-------2-------2------0---------|
 ------3-------0-------2------0---------|
 ----------------------0------3---------|

 or lead:
                                       | stop at line 4th time through.
 -------------------------------------------|
 -------------------------------------------|
 ---------------------------9-9--7-7-7-7--7-|x4
 -----10-10----7-7--7-7-7-------------------|
 -------------------------------------------|
 -------------------------------------------|

[Verse]
I'm feeling sexy and free
Like glitter's raining on me
You're like a shot of pure gold
I think I'm 'bout to explode

I can taste the tension like a cloud of smoke in the air
Now I'm breathing like I'm running cause you're taking me there
Don't you know? You spin me out of control

[Pre-Chorus]
Ooh, ooh, ooh, ooh
We can do this all night
Damn this love is skin tight
Baby, come on
Ooh, ooh, ooh, ooh
Boom me like a bass drum
Sparkin' up a rhythm
Baby, come on!
Ooh, ooh, ooh, ooh

[Chorus]
Rock my world into the sunlight
Make this dream the best I've ever known
Dirty dancing in the moonlight
Take me down like I'm a domino

Every second is a highlight
When we touch don't ever let me go
Dirty dancing in the moonlight
Take me down like I'm a domino

[Verse2]
You got me losing my mind
My heart beats out of time
I'm seeing Hollywood stars
You strum me like a guitar

I can taste the tension like a cloud of smoke in the air
Now I'm breathing like I'm running cause you're taking me there
Don't you know? You spin me out of control

[Pre-Chorus]
Ooh, ooh, ooh, ooh
We can do this all night
Damn this love is skin tight
Baby, come on
Ooh, ooh, ooh, ooh
Boom me like a bass drum
Sparkin' up a rhythm
Baby, come on!
Ooh, ooh, ooh, ooh

[Chorus]
Rock my world into the sunlight
Make this dream the best I've ever known
Dirty dancing in the moonlight
Take me down like I'm a domino

Every second is a highlight
When we touch don't ever let me go
Dirty dancing in the moonlight
Take me down like I'm a domino

[Bridge]
Ooh, baby, baby, got me feeling so right
Ooh, baby, baby, dancing in the moonlight
Ooh, baby, baby, got me feeling so right
Ooh, baby, baby, dancing in the moonlight
Ooh, baby, baby, got me feeling so right
Ooh, baby, baby, dancing in the moonlight
Ooh, baby, baby, got me feeling so right
Ooh, baby, baby

Ooh, ooh, ooh, ooh
[Chorus]
Rock my world into the sunlight
Make this dream the best I've ever known
Dirty dancing in the moonlight
Take me down like I'm a domino

Every second is a highlight
When we touch don't ever let me go
Dirty dancing in the moonlight
Take me down like I'm a domino

            
            
Suggest correction
Creating personal tab
Creating personal tab
You can edit any tab online and save it as your Personal.

You can edit, replace or remove any tab part or add personal notes – all changes will be seen only by you.

Personal tabs can be accessed anytime from any device, even offline.
Learn more »
comments
print report bad tab
guest
You may want to rate the tab now too:
select rating
Wanna post a correction for this tab? Suggest correction