Oops, an error
Loading. Please wait.

In The River bass

3,151 views 3 this week
7 commentsread comments
1 2 3 4 5
x 9
add to favorites
×
Save as Personal and add changes to this tab that will be seen only by you. Learn more ›
×
You can save this tab as Personal to edit and correct it or add notes. All changes will be seen only by you. Learn more »
launch autoscroll
font size
0
reset
guitar tuner
edit
Autoscroll
slow
fast
+/-
esc
set tempo
stop
Author
Difficulty
-----------------------------------------------------------------------------
                                          Artist - Jesus Culture
                                         ************************
                                        Song - In The River (live)   
                                       ****************************
                                        Album - Let It Echo (2016)   
                                       ****************************
                                           Tabbed By - Ayreon77
                                          **********************
-----------------------------------------------------------------------------
Tuning = Standard


00:16
VERSE 1
********
  There is a river where............
G|----------------|----------------|----------------|----------------|
D|----------------|----------------|----------------|----------------|
A|----------------|----------------|-5--5--5--5-5-8-|----------------|
E|-6--6--6--6-6-5-|-3--3--3--3-3-6-|----------------|-5--5--5--5-5-5-|X2

-----------------------------
00:32
VERSE 2
********
  There is a current............
G|----------------|----------------|----------------|----------------|
D|----------------|----------------|----------------|----------------|
A|----------------|----------------|-5--5--5--5-5-8-|----------------|
E|-6--6--6--6-6-5-|-3--3--3--3-3-6-|----------------|-5--5--5--5-5-5-|X2

-----------------------------
00:49
PRE CHORUS
***********
  Bursting, bursting............ 
G|----------------|----------------|----------------|----------------|
D|----------------|----------------|----------------|----------------|
A|----------------|----------------|-5--5--5--5-5-8-|----------------|
E|-6--6--6--6-6-5-|-3--3--3--3-3-6-|----------------|-5--5--5--5-5-5-|X2

-----------------------------
01:05
CHORUS
*******
  We come alive in the river...........
G|----------------|----------------|----------------|----------------|
D|----------------|----------------|----------------|----------------|
A|----------------|----------------|-5--5--5--5-5-8-|----------------|
E|-6--6--6--6-6-5-|-3--3--3--3-3-6-|----------------|-5--5--5--5-5-5-|X2

-----------------------------
01:21
INSTRUMENTAL
*************
G|----------------|----------------|----------------|----------------|
D|----------------|----------------|----------------|----------------|
A|----------------|----------------|-5--5--5--5-5-8-|----------------|
E|-6--6--6--6-6-5-|-3--3--3--3-3-6-|----------------|-5--5--5--5-5-5-|X2

-----------------------------
01:37
VERSE 2
********
  There is a current............
G|----------------|----------------|----------------|----------------|
D|----------------|----------------|----------------|----------------|
A|----------------|----------------|-5--5--5--5-5-8-|----------------|
E|-6--6--6--6-6-5-|-3--3--3--3-3-6-|----------------|-5--5--5--5-5-5-|X2

-----------------------------
01:54
PRE CHORUS
***********
  Bursting, bursting............
G|----------------|----------------|----------------|----------------|
D|----------------|----------------|----------------|----------------|
A|----------------|----------------|-5--5--5--5-5-8-|----------------|
E|-6--6--6--6-6-5-|-3--3--3--3-3-6-|----------------|-5--5--5--5-5-5-|X2

-----------------------------
02:10
CHORUS
*******
  We come alive in the river...........
G|----------------|----------------|----------------|----------------|
D|----------------|----------------|----------------|----------------|
A|----------------|----------------|-5--5--5--5-5-8-|----------------|
E|-6--6--6--6-6-5-|-3--3--3--3-3-6-|----------------|-5--5--5--5-5-5-|X2

-----------------------------
02:26
INSTRUMENTAL
*************
G|----------------|----------------|----------------|----------------|
D|----------------|----------------|----------------|----------------|
A|----------------|----------------|-5--5--5--5-5-8-|----------------|
E|-6--6--6--6-6-5-|-3--3--3--3-3-6-|----------------|-5--5--5--5-5-5-|X2

-----------------------------
02:42
BRIDGE
*******
  Break open prison doors.............. 
G|-----------|------------|----------|------------|
D|-----------|------------|----------|------------|
A|-----------|------------|-5--------|------------|
E|-6---------|-3----------|----------|-5----------|X2

  Nothing can stop this joy..........
G|--------------------|----------------|----------------|----------------|
D|--------------------|----------------|----------------|----------------|
A|--s-----------------|----------------|-5--5--5--5-5-8-|----------------|
E|-3\6-6--6--6--6-6-5-|-3--3--3--3-3-6-|----------------|-5--5--5--5-5-5-|X2

-----------------------------
03:15
INSTRUMENTAL
*************
G|-----------|------------|----------|------------|
D|-----------|------------|----------|------------|
A|-----------|------------|-5--------|------------|
E|-6---------|-3----------|----------|-5----------|X2

-----------------------------
03:31
CHORUS
*******
  We come alive in the river............                                  last time around do this
G|----------------|----------------|----------------|----------------|   |-----------|------------------|
D|----------------|----------------|----------------|----------------|   |-----------|------------------|
A|----------------|----------------|-5--5--5--5-5-8-|----------------|   |-5--5--5-5-|--s---------------|
E|-6--6--6--6-6-5-|-3--3--3--3-3-6-|----------------|-5--5--5--5-5-5-|X2 |-----------|-3\55555555555555-|

-----------------------------
03:48
PRE CHORUS
***********
  Bursting, bursting............
G|----------------|----------------|----------------|----------------|
D|----------------|----------------|----------------|----------------|
A|----------------|----------------|-5--5--5--5-5-8-|----------------|
E|-6--6--6--6-6-5-|-3--3--3--3-3-6-|----------------|-5--5--5--5-5-5-|X2

-----------------------------
04:04
CHORUS
*******
  We come alive in the river............
G|----------------|----------------|----------------|----------------|
D|----------------|----------------|----------------|----------------|
A|----------------|----------------|-5--5--5--5-5-8-|----------------|
E|-6--6--6--6-6-5-|-3--3--3--3-3-6-|----------------|-5--5--5--5-5-5-|X2

-----------------------------
OUTRO
******
G|---------------------------------------------------------------------------------------|
D|---------------------------------------------------------------------------------------|
A|--s----------------------------------------------------------------------------------s-|
E|-6\--6--6-6-6-6-6-6-6-6-6-6-6-6-6-6-6-6-6-6-6-6-6-6-6-6-6-6-6-6-6-6-6-6-6-6-6-6-6-6-6\-|


ENJOY............

            
            
Suggest correction
Creating personal tab
Creating personal tab
You can edit any tab online and save it as your Personal.

You can edit, replace or remove any tab part or add personal notes – all changes will be seen only by you.

Personal tabs can be accessed anytime from any device, even offline.
Learn more »
comments
print report bad tab
7 comments total. Showing first comments.
0 reply
montyhobson 236 Mar 09, 2016 06:23 PM

This is fantastic 100%! For accurate chord chart of this tune you can copy and paste into PCO and/or tracks/stems for worship:
http://accuratechordcharts.blogspot.com/2016/03/intheriveraccuratechordchartsjesusculture.html

0 reply
ayreon77 21,833 Mar 09, 2016 07:05 PM

thx for the comment and the rating :)

0 reply
oscarmartinezpr 10 Jun 14, 2016 09:34 AM

job well done!!

guest
You may want to rate the tab now too:
select rating
Wanna post a correction for this tab? Suggest correction