Oops, an error
Loading. Please wait.

Sing My Love bass

10 views 1 this week
no commentswrite comment
1 2 3 4 5
3 more votes to show rating
add to favorites
×
Save as Personal and add changes to this tab that will be seen only by you. Learn more ›
×
You can save this tab as Personal to edit and correct it or add notes. All changes will be seen only by you. Learn more »
launch autoscroll
font size
0
reset
guitar tuner
edit
Autoscroll
slow
fast
+/-
esc
set tempo
stop
-------------------------------------------------------------------
                     Artist - Jesus Culture
                    ************************
                   Song - Sing My Love (LIVE)
                  ****************************
             Album - Your Love Never Fails (2008)
            **************************************
                     Tabbed By - Ayreon77
                    **********************
-------------------------------------------------------------------
Tuning = Standard             


INTRO
******
G|-----------------|-----------------|-----------------|-----------------|
D|-----------------|-----------------|-----------------|-----------------|
A|-3-3-3-3-3-3-3-3-|-3-3-3-3-3-3-3-3-|-----------------|-----------------|
E|-----------------|-----------------|-1-1-1-1-1-1-1-1-|-1-1-1-1-1-1-1-1-|


G|-----------------|-----------------|-----------------|-----------------|
D|-----------------|-----------------|-----------------|-----------------|
A|-0-0-0-0-0-0-0-0-|-2-2-2-2-2-2-2-2-|-3-3-3-3-3-3-3-3-|-3-3-3-3-3-3-3-3-|
E|-----------------|-----------------|-----------------|-----------------|


-----------------------
00:18
VERSE 1
********
G|---------|----------|---------|----------|---------|
D|---------|----------|---------|----------|---------|
A|-3~~~~~~-|--------s-|-3~~~~~~-|--------s-|---------|
E|---------|-1~~~~~~\-|---------|-1~~~~~~\-|-5~~~~~~-|

00:38
G|-----------------|--------------|-------------------------------|
D|-----------------|--------------|--s--------------------------s-|
A|-3~~-2~~-0~~~~~~-|-3~~-2~~-0~~~-|-2\12-12-12-12-12-12-12-12-12\-|
E|-----------------|--------------|-------------------------------|


-----------------------
00:54
CHORUS
*******
G|-----------------|-----------------|-----------------|-----------------|
D|-----------------|-----------------|-----------------|-----------------|
A|-3-3-3-3-3-3-3-3-|-3-3-3-3-3-3-3-3-|-----------------|-----------------|
E|-----------------|-----------------|-1-1-1-1-1-1-1-1-|-1-1-1-1-1-1-1-1-|


G|-----------------|-----------------|-----------------|-----------------|
D|-----------------|-----------------|-----------------|-----------------|
A|-0-0-0-0-0-0-0-0-|-2-2-2-2-2-2-2-2-|-3-3-3-3-3-3-3-3-|-3-3-3-3-3-3-3-3-|
E|-----------------|-----------------|-----------------|-----------------|

01:10
G|-----------------|-----------------|-----------------|-----------------|
D|-----------------|-----------------|-----------------|-----------------|
A|-3-3-3-3-3-3-3-3-|-3-3-3-3-3-3-3-3-|-----------------|-----------------|
E|-----------------|-----------------|-1-1-1-1-1-1-1-1-|-1-1-1-1-1-1-1-1-|


G|-----------------|-----------------|-----------------|--------------|
D|-----------------|-----------------|-----------------|------------s-|
A|-0-0-0-0-0-0-0-0-|-2-2-2-2-2-2-2-2-|-3-3-3-3-3-3-3-3-|-3-3-3-3-3-3\-|
E|-----------------|-----------------|-----------------|--------------|


-----------------------
01:26
VERSE 2
********
G|-------------------------|--------------------------|-----------------|-----------------|
D|-------------------------|------------------------s-|-----------------|-----------------|
A|-15-15-15-15-15-15-15-15-|-15-15-15-15-15-15-15-15\-|-8-8-8-8-8-8-8-8-|-8-8-8-8-8-8-8-8-|
E|-------------------------|--------------------------|-----------------|-----------------|


G|-------------------------|-------------------------|-----------------|------------------|
D|-10-10-10-10-10-10-10-10-|-10-10-10-10-10-10-10-10-|-----------------|----------------s-|
A|-------------------------|-------------------------|-8-8-8-8-8-8-8-8-|-8-8-8-8-8-8-8-8\-|
E|-------------------------|-------------------------|-----------------|------------------|

01:42
G|-----------------|-----------------|-----------------------------------------|
D|-----------------|-----------------|----------------s------------------------|
A|-0-0-0-0-0-0-0-0-|-0-0-0-0-0-0-0-0-|-3-3-3-3-3-3-3-3\14-14-14-14-14-14-14-14-|
E|-----------------|-----------------|-----------------------------------------|

01:50
G|-------------------------|-------------------------|
D|-------------------------|-------------------------|
A|-12-12-12-12-12-12-12-12-|-12-12-12-12-12-12-12-12-|
E|-------------------------|-------------------------|


G|-----------------|-----------------|-----------------|---------------------------|
D|-----------------|-----------------|-----------------|--s------------------------|
A|-3-3-3-3-3-3-3-3-|-2-2-2-2-2-2-2-2-|-0-0-0-0-0-0-0-0-|-2\12-12-12-12-12-12-12-12-|
E|-----------------|-----------------|-----------------|---------------------------|


-----------------------
02:02
CHORUS
*******
G|-----------------|-----------------|-----------------|-----------------|
D|-----------------|-----------------|-----------------|-----------------|
A|-3-3-3-3-3-3-3-3-|-3-3-3-3-3-3-3-3-|-----------------|-----------------|
E|-----------------|-----------------|-1-1-1-1-1-1-1-1-|-1-1-1-1-1-1-1-1-|


G|-----------------|-----------------|-----------------|-----------------|
D|-----------------|-----------------|-----------------|-----------------|
A|-1-1-1-1-1-1-1-1-|-2-2-2-2-2-2-2-2-|-3-3-3-3-3-3-3-3-|-3-3-3-3-3-3-3-3-|
E|-----------------|-----------------|-----------------|-----------------|

02:18
G|-----------------|-----------------|-----------------|-----------------|
D|-----------------|-----------------|-----------------|-----------------|
A|-3-3-3-3-3-3-3-3-|-3-3-3-3-3-3-3-3-|-----------------|-----------------|
E|-----------------|-----------------|-1-1-1-1-1-1-1-1-|-1-1-1-1-1-1-1-1-|


G|-----------------|-----------------|-----------------|--------------|
D|-----------------|-----------------|-----------------|------------s-|
A|-1-1-1-1-1-1-1-1-|-2-2-2-2-2-2-2-2-|-3-3-3-3-3-3-3-3-|-3-3-3-3-3-3\-|
E|-----------------|-----------------|-----------------|--------------|


-----------------------
02:34
VERSE 3
********
G|-------------------------|--------------------------|-----------------|-----------------|
D|-------------------------|------------------------s-|-----------------|-----------------|
A|-15-15-15-15-15-15-15-15-|-15-15-15-15-15-15-15-15\-|-8-8-8-8-8-8-8-8-|-8-8-8-8-8-8-8-8-|
E|-------------------------|--------------------------|-----------------|-----------------|


G|-------------------------|-------------------------|-----------------|------------------|
D|-10-10-10-10-10-10-10-10-|-10-10-10-10-10-10-10-10-|-----------------|----------------s-|
A|-------------------------|-------------------------|-8-8-8-8-8-8-8-8-|-8-8-8-8-8-8-8-8\-|
E|-------------------------|-------------------------|-----------------|------------------|

02:50
G|-----------------|-----------------|-----------------------------------------|
D|-----------------|-----------------|----------------s------------------------|
A|-0-0-0-0-0-0-0-0-|-0-0-0-0-0-0-0-0-|-3-3-3-3-3-3-3-3\14-14-14-14-14-14-14-14-|
E|-----------------|-----------------|-----------------------------------------|

02:58
G|-------------------------|-------------------------|
D|-------------------------|-------------------------|
A|-12-12-12-12-12-12-12-12-|-12-12-12-12-12-12-12-12-|
E|-------------------------|-------------------------|


G|-----------------|-----------------|-----------------|---------------------------|
D|-----------------|-----------------|-----------------|--s------------------------|
A|-3-3-3-3-3-3-3-3-|-2-2-2-2-2-2-2-2-|-0-0-0-0-0-0-0-0-|-2\12-12-12-12-12-12-12-12-|
E|-----------------|-----------------|-----------------|---------------------------|


-----------------------
03:10
CHORUS
*******
G|-----------------|-----------------|-----------------|-----------------|
D|-----------------|-----------------|-----------------|-----------------|
A|-3-3-3-3-3-3-3-3-|-3-3-3-3-3-3-3-3-|-----------------|-----------------|
E|-----------------|-----------------|-1-1-1-1-1-1-1-1-|-1-1-1-1-1-1-1-1-|


G|-----------------|-----------------|-----------------|-----------------|
D|-----------------|-----------------|-----------------|-----------------|
A|-1-1-1-1-1-1-1-1-|-2-2-2-2-2-2-2-2-|-3-3-3-3-3-3-3-3-|-3-3-3-3-3-3-3-3-|
E|-----------------|-----------------|-----------------|-----------------|

03:26
G|-----------------|-----------------|-----------------|-----------------|
D|-----------------|-----------------|-----------------|-----------------|
A|-3-3-3-3-3-3-3-3-|-3-3-3-3-3-3-3-3-|-----------------|-----------------|
E|-----------------|-----------------|-1-1-1-1-1-1-1-1-|-1-1-1-1-1-1-1-1-|


G|-----------------|-----------------|-----------------|-----------------|
D|-----------------|-----------------|-----------------|--------s--------|
A|-1-1-1-1-1-1-1-1-|-2-2-2-2-2-2-2-2-|-3-3-3-3-3-3-3-3-|-3-3-3-3\7-7-7-7-|
E|-----------------|-----------------|-----------------|-----------------|


-----------------------
03:42
SOLO 1
*******
G|-----------------|-----------------|-----------------|-----------------|
D|-----------------|-----------------|-----------------|-----------------|
A|-8-8-8-8-8-8-8-8-|-8-8-8-8-8-8-8-8-|-----------------|-----------------|
E|-----------------|-----------------|-5-5-5-5-5-5-5-5-|-5-5-5-5-5-5-5-5-|


G|-----------------|-----------------|--------------------------------------|
D|-----------------|-----------------|------------s-----------------------s-|
A|-----------------|-----------------|-3-3-3-3-3-3\15-15-15-15-15-15-15-15\-|
E|-3-3-3-3-3-3-3-3-|-3-3-3-3-3-3-3-3-|--------------------------------------|

03:58
G|-----------------|-----------------|-------------------------|-------------------------|
D|-----------------|-----------------|-------------------------|-------------------------|
A|-8-8-8-8-8-8-8-8-|-8-8-8-8-8-8-8-8-|-12-12-12-12-12-12-12-12-|-12-12-12-12-12-12-12-12-|
E|-----------------|-----------------|-------------------------|-------------------------|


G|-------------------------|-------------------------|-----------------|-----------------|
D|-------------------------|-------------------------|-----------------|-----------------|
A|-10-10-10-10-10-10-10-10-|-10-10-10-10-10-10-10-10-|-3-3-3-3-3-3-3-3-|-3-3-3-3-3-3-3-3-|
E|-------------------------|-------------------------|-----------------|-----------------|


-----------------------
04:14
CHORUS
*******
G|-----------------|-----------------|-----------------|-----------------|
D|-----------------|-----------------|-----------------|-----------------|
A|-3-3-3-3-3-3-3-3-|-3-3-3-3-3-3-3-3-|-----------------|-----------------|
E|-----------------|-----------------|-1-1-1-1-1-1-1-1-|-1-1-1-1-1-1-1-1-|


G|-----------------|-----------------|-----------------|------------------|
D|-----------------|-----------------|-----------------|----------------s-|
A|-0-0-0-0-0-0-0-0-|-2-2-2-2-2-2-2-2-|-3-3-3-3-3-3-3-3-|-3-3-3-3-3-3-3-3\-|
E|-----------------|-----------------|-----------------|------------------|

04:30
G|-------------------------|--------------------------|-----------------|------------------|
D|-------------------------|------------------------s-|-----------------|----------------s-|
A|-15-15-15-15-15-15-15-15-|-15-15-15-15-15-15-15-15\-|-8-8-8-8-8-8-8-8-|-8-8-8-8-8-8-8-8\-|
E|-------------------------|--------------------------|-----------------|------------------|


G|-----------------|-----------------|-----------------|-----------------|-------|
D|-----------------|-----------------|-----------------|-----------------|-------|
A|-0-0-0-0-0-0-0-0-|-2-2-2-2-2-2-2-2-|-3-3-3-3-3-3-3-3-|-3-3-3-3-3-3-3-3-|-3~~~~-|
E|-----------------|-----------------|-----------------|-----------------|-------|



No Bass


-----------------------
05:02
CHORUS
*******
G|-------------------------|--------------------------|-----------------|------------------|
D|-------------------------|------------------------s-|-----------------|----------------s-|
A|-15-15-15-15-15-15-15-15-|-15-15-15-15-15-15-15-15\-|-8-8-8-8-8-8-8-8-|-8-8-8-8-8-8-8-8\-|
E|-------------------------|--------------------------|-----------------|------------------|


G|-----------------|-----------------|--------------------------------------|
D|-----------------|-----------------|------------s-----------------------s-|
A|-0-0-0-0-0-0-0-0-|-2-2-2-2-2-2-2-2-|-3-3-3-3-3-3\15-15-15-15-15-15-15-15\-|
E|-----------------|-----------------|--------------------------------------|


-----------------------
05:18
SOLO 2
*******
G|-----------------|-----------------|-----------------|-----------------|\
D|-----------------|-----------------|-----------------|-----------------| \
A|-3-3-3-3-3-3-3-3-|-3-3-3-3-3-3-3-3-|-----------------|-----------------|  \
E|-----------------|-----------------|-1-1-1-1-1-1-1-1-|-1-1-1-1-1-1-1-1-|   \
                                                                              \X
                                                                              /6
G|-----------------|-----------------|-----------------|-----------------|   /
D|-----------------|-----------------|-----------------|-----------------|  /
A|-0-0-0-0-0-0-0-0-|-2-2-2-2-2-2-2-2-|-3-3-3-3-3-3-3-3-|-3-3-3-3-3-3-3-3-| /
E|-----------------|-----------------|-----------------|-----------------|/


ENJOY................

            
            
Suggest correction
Creating personal tab
Creating personal tab
You can edit any tab online and save it as your Personal.

You can edit, replace or remove any tab part or add personal notes – all changes will be seen only by you.

Personal tabs can be accessed anytime from any device, even offline.
Learn more »
Give kudos to tab author, rate the tab!
1 2 3 4 5
comments
print report bad tab
guest
You may want to rate the tab now too:
select rating
Wanna post a correction for this tab? Suggest correction