Oops, an error
Loading. Please wait.
We have an official Are You Gonna Be My Girl tab made by UG professional guitarists. Check out the tab »
×
by Jet
317,314 views 402 this week
35 commentsread comments
1 2 3 4 5
x 163
add to favorites
×
Save as Personal and add changes to this tab that will be seen only by you. Learn more ›
×
You can save this tab as Personal to edit and correct it or add notes. All changes will be seen only by you. Learn more »
launch autoscroll
font size
0
reset
guitar tuner
backing track
0:00
0:00
edit
Autoscroll
slow
fast
+/-
esc
set tempo
stop
[Intro]
(Tambourine 6/4 - Bass rest), then:

G|--------------------|---------------------|
D|--------------------|---------------------|
A|------------------3-|---------------------|
E|-5-5-5--5-5--0h3h5--|-5-5-5--5-5--0h3-0h3-|

G|--------------------|-------------------|
D|--------------------|-------------------|
A|------------------3-|---3-5b--5-3-------|
E|-5-5-5--5-5--0h3h5--|-5----------5--5-3-|


[Drums]

G|--------------------|---------------------|
D|--------------------|---------------------|
A|------------------3-|---------------------|
E|-5-5-5--5-5--0h3h5--|-5-5-5--5-5--0h3-0h3-|

G|-----------------------|-------------|
D|-----------------------|-------------|
A|-----------------------|-G-U-I-T-A-R-|
E|-5-5-5--5-5--0h3-0h3-5-|----------15\|


[Verse 1] 
(play INTRO, rest 8/4 then play)

G|---------------------|--------------|---------------------|----------------|
D|---------------------|--------------|---------------------|----------------|
A|------------------3--|--V-O-I-C-E---|------------------3--|-V-O-I-C-E------|
E|-5-5-5--5-5--0h3h5-5-|--------------|-5-5-5--5-5--0h3h5-5-|----------0-2-3-|

G|--------------------|-------------------|
D|--------------------|-------------------|
A|------------------3-|---3-5b--5-3-------|
E|-5-5-5--5-5--0h3h5--|-5----------5-5--3-|


[Pre-Chorus]

G|------------|
D|------------|
A|-5-5-5--3---| x4
E|----------3-|


[Chorus]

G|-----------------------|----------------------|----------2-------|--------------------|
D|-----------------------|-------------------2--|-0-0-0/2-4--4-2---|-----7-p5-7-5---5-7-|
A|---------------------2-|-3-3-3--3--x-2--3-----|----------------2-|--------------7-----| x2
E|-5-5-5--5-5--5-5-5-5---|----------------------|------------------|-5-5----------------|

G|-----------------|------------------|
D|-----------------|------------------|
A|-7--7--7--77-77-7|-10-10~-V-O-I-C-E-|
E|-----------------|------------------|

[Verse 2]
(play INTRO, rest 8/4 then play [Verse 1])

[Pre-Chorus]

[Chorus]

CODA - rest 8/4, then

G|-----------|
D|---------5-|
A|------5h7--|
E|-----------|

G|---------------------|-5-----------------5-|-----------------7---|---------------------|
D|---7-7---7-7-----7-7-|---------------------|-0-0-0--0-0--0-0---0-|---7-----------------|
A|---------------------|---3-3--3-3--3-3-3---|---------------------|---------------------|
E|-5-----------5-------|---------------------|---------------------|-5---5---5--0--2--3--|

G|---------------------|---5---------------5-|---7-----------------|---------------------|
D|---7-----------------|---------------------|-0---0--0-0--0-0-0-0-|---7----7--5-----5-7-|
A|---------------------|-3---3--3-3--3-3-3---|---------------------|--------------7------|
E|-5---5--5-5--5-5-5-5-|---------------------|---------------------|-5---5---------------|


[Chorus] 
(first part) x3


************************************

| h  Hammer-on
| p  Pull-off
| /  Slide up
| \  Slide down
| ~  Vibrato 
| b  Bend

************************************

            
            
Suggest correction
Creating personal tab
Creating personal tab
You can edit any tab online and save it as your Personal.

You can edit, replace or remove any tab part or add personal notes – all changes will be seen only by you.

Personal tabs can be accessed anytime from any device, even offline.
Learn more »
comments
print report bad tab
35 comments total. Showing first comments.
0 reply
Debaser101 123 Aug 28, 2006 05:19 AM

Pretty perfect! Well done.

0 reply
homo 52 Sep 24, 2006 03:58 AM

awsomeness tab dude

+1 reply
m_daly_123 51 Nov 27, 2006 03:03 PM

amazing thanks..esp. for the little fill things in the chorus!

guest
Wanna post a correction for this tab? Suggest correction