Oops, an error
Loading. Please wait.
We have an official Cold Hard Bitch tab made by UG professional guitarists. Check out the tab »
×
by Jet
12,983 views 3 this week
2 commentsread comments
1 2 3 4 5
x 8
add to favorites
×
Save as Personal and add changes to this tab that will be seen only by you. Learn more ›
×
You can save this tab as Personal to edit and correct it or add notes. All changes will be seen only by you. Learn more »
launch autoscroll
font size
0
reset
guitar tuner
backing track
0:00
0:00
edit
Autoscroll
slow
fast
+/-
esc
set tempo
stop
This is how i play this song with my band, more complicated and sounds a lot better than 
other tab on here which is basically guitar parts played on a bass guitar.

Enjoy!

Intro

G|---------------------------------------|
D|---------------------------------------|
A|-0000000000000000000000-ect until 0:37-|
E|---------------------------------------|

0:37

G|-----------------------------------------------------|
D|--0--0----------------------55555555-5/3-------------|
A|-------0-0-------------------------------5/3-5/3-----|
E|-----------3333333333333333----------------------5/3-|

0:47
G|-------------------------------------|
D|-------------------------------------|
A|-----------------5-----------------5-|
E|-5--5-5--0-3-0-3---5--5-5--0-3-0-3---| x2

1:01 - Gotta Leave Town....

G|----------------------------------------------------------|
D|--------5----------------------------5--------------------|
A|----------5----------------------------5------------------|
E|-5----------55--5-5--0-3-0-3--5----------55--5-5--0-3-0-3-|

1:16 - Gonna hang around....

G|-----------------------------------------------------------|
D|-0000000000000000-22222222---------------------------------|
A|---------------------------33333333-55-3h5p3h5-3h5-3h5p3h5-|
E|-----------------------------------------------------------|

1:27 - Cold hard bitch....

G|-----------------------------------------|
D|-----------00--00232325353-----------00~-|
A|-----------------------------------------|
E|-5--5533-33----------------5--5533-33----|

1:48

G|---------------------------------------------|
D|---------------------------------------------|
A|---------5-----------------5-----------------|
E|-0-3-0-3---5--5-5--0-3-0-3---5--5-5--0-3-0-3-|

1:57 - Gonna take her out....

G|----------------------------------------------------------|
D|--------5----------------------------5--------------------|
A|----------5----------------------------5------------------|
E|-5----------55--5-5--0-3-0-3--5----------55--5-5--0-3-0-3-|

2:11 - Gonna take her home....
G|-----------------------------------------------------------|
D|-0000000000000000-22222222---------------------------------|
A|---------------------------33333333-55-3h5p3h5-3h5-3h5p3h5-|
E|-----------------------------------------------------------|

2:22 - Cold hard bitch....

G|---------------------------:|---------------|
D|-----------00--00232325353-:|-----------00~-|
A|---------------------------:|---------------|
E|-5--5533-33----------------:|-5--5533-33----|

2:47

G|----------------------------------------------------|
D|----------------------------------------------------|
A|-5-----------------5-----------------5--------------|
E|---5-3-5--0-3-5------5-3-5--0-3-5------5-3-5--0-3-5-|

G|------------------------------------------------|
D|-----5-----------------------5------------------|
A|-------5-5---------------------5-5--------------|
E|-5-3-------5-3-5--0-3-5--5-3-------5-3-5--0-3-5-| x2

G|------------------|
D|-----5------------|
A|-------5-5--------|
E|-5-3-------5-3-5~-|

3:22
G|---------------------------------------|
D|---------------------------------------|
A|-0000000000000000000000-ect until 3:35-|
E|---------------------------------------|

3:35

G|-----------------------------------------------------|
D|--0--0----------------------55555555-5/3-------------|
A|-------0-0-------------------------------5/3-5/3-----|
E|-----------3333333333333333----------------------5/3-|

3:44 - Cold Hard Bitch....

G|---------------------------|
D|-----------00--00232325353-|
A|---------------------------|
E|-5--5533-33----------------| x3

            
            
Suggest correction
Creating personal tab
Creating personal tab
You can edit any tab online and save it as your Personal.

You can edit, replace or remove any tab part or add personal notes – all changes will be seen only by you.

Personal tabs can be accessed anytime from any device, even offline.
Learn more »
comments
print report bad tab
2 comments total.
0 reply
mrdemo94 66 Sep 28, 2013 08:48 AM

Fucking amazing! Thanks!

+1 reply
camster4153 92 Jul 11, 2014 09:31 PM

I think its actually this:

1:16 - Gonna hang around....

G|-----------------------------------------------------------|
D|-0000000000000000-22222222---------------------------------|
A|------------------------------------55-3h5p3h5-3h5-3h5p3h5-|
E|---------------------------33333333------------------------|

guest
You may want to rate the tab now too:
select rating
Wanna post a correction for this tab? Suggest correction