Oops, an error
Loading. Please wait.

Snap Your Fingers tab

by Jet
417 views 1 this week
no commentswrite comment
1 2 3 4 5
3 more votes to show rating
add to favorites
×
Save as Personal and add changes to this tab that will be seen only by you. Learn more ›
×
You can save this tab as Personal to edit and correct it or add notes. All changes will be seen only by you. Learn more »
launch autoscroll
font size
0
reset
how to read this tab
guitar tuner
edit
Autoscroll
slow
fast
+/-
esc
set tempo
stop
Difficulty
intermediate
Snap Your Fingers (Barbados Demo) by JET
Brought to you by Luca Zambarda
First Tab Ever, so please be sympathetic xD
I made this with my acoustic guitar, so...
-----------------------------------------------------

INTRO (guitar)
The x in the first riff can be avoided on acoustic guitars
e|--------------------------------------------------|
B|--------------------------------------------------|
G|-----5--3--5-x-8-8*---------5--3--5-x-10-10*------|
D|-----5--3--5-x-8-8*---------5--3--5-x-10-10*------|
A|-----3--1--3-x-6-6*---------3--1--3-x--8--8*------|
E|--------------------------------------------------|
*=let ring
e|---------------------------------------------------|
B|---------------------------------------------------|
G|---5--3--5---10b11-8----10b11-10b11-8--------------| 
D|---5--3--5---10b11-8----10b11-10b11-8--10x10-------|
A|---3--1--3----8b9--6-----8b9---8b9--6--10x10-------|
E|----------------------------------------8x8--------|

MAIN RIFF
e|-----------------|     |-------------------------------|
B|-----------------|     |-------------------------------|
G|---5--3--5-------| x 3 |---10b11-10b11-8---------------|
D|---5--3--5-------|     |---10b11-10b11-8--10x10--------|
A|---3--1--3-------|     |----8b9---8b9--6--10x10--------|
E|-----------------|     |-------------------8x8---------|
Snap your finger
Catch you're heaven
I'll go dance now...I will go

e|-----------------|     |-------------------------------|
B|-----------------|     |-------------------------------|
G|---5--3--5-------| x 3 |---10b11-10b11-8---------------|
D|---5--3--5-------|     |---10b11-10b11-8--10x10--------|
A|---3--1--3-------|     |----8b9---8b9--6--10x10--------|
E|-----------------|     |-------------------8x8---------|
Get you closer
Get my hands in
I will teach ya
How to dancing


CHORUS (not sure)
e|-----------------------|      |-----------------------|
B|-----------------------|      |-----------------------|
G|---12b13--10-8---------|  x 3 |---9-9-9---9--9-9------|
D|---12b13--10-8-10/12---|      |---9-9-9---9--9-9------|
A|---10b11---8-6-10/12---|      |---7-7-7---7--7-7------|
E|----------------8/10---|      |-----------------------|
Snap your fingers x 4
Snap your fingers x 4


BRIDGE
e|-----------------|     |-------------------------------|
B|-----------------|     |-------------------------------|
G|---5--3--5-------| x 3 |---10b11-10b11-8---------------|
D|---5--3--5-------|     |---10b11-10b11-8--10x10--------|
A|---3--1--3-------|     |----8b9---8b9--6--10x10--------|
E|-----------------|     |-------------------8x8---------|
Some people love me
Some they don't
Now i'm going (to) teach ya
Get your dancing


CHORUS (not sure)
e|-----------------------|      |-----------------------|------|
B|-----------------------|      |-----------------------|--9b--|
G|---12b13--10-8---------|  x 3 |---9-9-9---9--9-9------|--9b--|
D|---12b13--10-8-10/12---|      |---9-9-9---9--9-9------|--7b--|
A|---10b11---8-6-10/12---|      |---7-7-7---7--7-7------|------|
E|----------------8/10---|      |-----------------------|------|
Snap your fingers x 4
Snap your fingers x 4

            
            
Suggest correction
Creating personal tab
Creating personal tab
You can edit any tab online and save it as your Personal.

You can edit, replace or remove any tab part or add personal notes – all changes will be seen only by you.

Personal tabs can be accessed anytime from any device, even offline.
Learn more »
Give kudos to tab author, rate the tab!
1 2 3 4 5
comments
print report bad tab
guest
Wanna post a correction for this tab? Suggest correction