Oops, an error
Loading. Please wait.

Stand Up tab

version 2
version 2

Whole song

by Jet
1,522 views 1 this week
1 commentread comment
1 2 3 4 5
2 more votes to show rating
add to favorites
×
Save as Personal and add changes to this tab that will be seen only by you. Learn more ›
×
You can save this tab as Personal to edit and correct it or add notes. All changes will be seen only by you. Learn more »
launch autoscroll
font size
0
reset
how to read this tab
guitar tuner
edit
Autoscroll
slow
fast
+/-
esc
set tempo
stop
Author
Artist: Jet     
Song: Stand Up  
Album: Shine On (2006)

Intro:
e|------------------------------------------|
B|------------------------------------------|
G|-77777777777--7~-5~-4~--7~-9~-12~---------|
D|-55555555555--5~-5~-5~--5~-5~-12~---------|
A|------------------------------------------|
E|------------------------------------------|

Verse:
e|-33---33-----------------33--------------------------------|
B|-33---33-----------------33--------------------------------|
G|-00---00--0-----------0~-00--0---------------7-------------|
D|-00---00----3p0----------00----3p0-----------5--5353-------|
A|-22---22--------3-1------22--------3-1---3~-----3131--555--|
E|-33---33------------3----33------------3--------------333--|

Pre-Chorus:
e|--3-0--0-3--3-2-------2-0--0-3--3-2---------------|
B|--3-2--2-3--3-3-------3-2--2-3--3-3---------------|
G|--0-2--2-0--0-2-------2-2--2-0--0-2---------------|
D|--0-2--2-0--0-0-------0-2--2-0--0-0---------------|
A|--2-0--0-2--2-----------0--0-2--2-----------------|
E|--3------3--3----------------3--3-----------------|

Chorus:
e|------22--0--------22--0-------22--0--------|
B|-0-0--33--2---0-0--33--2--0-0--33--2--------|At the end of the chorus 
G|-1-1--22--2---1-1--22--2--1-1--22--2--------|Keyboard Plays: D A E
D|-2-2--00--2---2-2--00--2--2-2--00--2--------|
A|-2-2------0---2-2------0--2-2------0--------|
E|-0-0----------0-0---------0-0---------------|

            
            
Suggest correction
Creating personal tab
Creating personal tab
You can edit any tab online and save it as your Personal.

You can edit, replace or remove any tab part or add personal notes – all changes will be seen only by you.

Personal tabs can be accessed anytime from any device, even offline.
Learn more »
Give kudos to tab author, rate the tab!
1 2 3 4 5
comments
print report bad tab
1 comment total.
0 reply
nml6493 306 Apr 15, 2007 09:26 AM

sorry man this souds bad thats not the intro the fills seem right though

guest
You may want to rate the tab now too:
select rating
Wanna post a correction for this tab? Suggest correction