Oops, an error
Loading. Please wait.

Up To Me tab

version 2
version 2

Whole song

3,067 views 9 this week
no commentswrite comment
1 2 3 4 5
x 10
add to favorites
×
Save as Personal and add changes to this tab that will be seen only by you. Learn more ›
×
You can save this tab as Personal to edit and correct it or add notes. All changes will be seen only by you. Learn more »
launch autoscroll
font size
0
reset
how to read this tab
guitar tuner
edit
Autoscroll
slow
fast
+/-
esc
set tempo
stop
Author
Difficulty
intermediate
[Riff 1]

e--------------------------------------|
B--------------------------------------|
G--------------------------------------|  
D-\2-2-2p0------2----------------------|
A---------2p0--------------------------|
E-------------3------------------------|

[Riff 2]

e--------------------------------------|
B--------------------------------------|
G--------------------------------------|  
D-\2-2-0-------------------------------|
A----------1-1-0-----------------------|
E--------3-------3---------------------|

[Riff 3]

e--------------------------------------|
B--------------------------------------|
G--------------------------------------|  
D-\2-2-2p0------2---\2-2-0-------------|
A---------2p0----------------1-1-0-----|
E-------------3------------3-------3---|

[Intro]

Riff 1 x 3
Riff 2 x 1
Riff 3 x 3


[Verse 1]

Em
Take you to the cinema
      D
and leave you in a Wimpy Bar,
    C
you tell me that we've gone too far,
      Am           D
come running up to me.
Em
Make the scene at Cousin Jack's,
        D
leave him put the bottles back,
C
mends his glasses that I cracked,
      Am              D
well that's one up to me,  yeah


[Chorus]

N.C
Riff 3 x 4
Oh it's up to me..
it's up to me..

[Verse 2]

Em
Buy a silver cloud to ride,
D
pack the tennis club inside,
C
trouser cuffs hung far too wide,
     Am           D
well it was up to me.
Em
Tires down on your bicycle,
D
your nose feels like an icicle,
     C
the yellow fingered smoky girl,
   Am            D
is looking up to me, Yeah


[Chorus]

N.C
Riff 3 x 4
Oh you know it's up to me yeah...


[Bridge]

Em                 A7      Em
Well, I'm a common working man,
Em     A7      Em                A7
with a half of bitter, bread and jam,
Am9       A7      C       A7             C
and if it pleases me I'll put one on you man,
Am9      A7     C     A7 C    C  Em
when the copper fades away.    oh   oh it's up to me...

[Chorus]

N.C
Riff 3 x 4
Oh you said it's up to me yeah..

[Verse 3]

Em
The rainy season comes to pass,
D
the day-glo pirate sinks at last,
    C
and if I laughed a bit to fast
     Am           D
well it was up to me.
Em
Take you to the cinema
     D
and leave you in a Wimpy Bar,
     C
you tell me that we've gone too far,
      Am            D
come running up to me.

[Ending]

N.C
Riff 3 x 4
Riff 1 x 1
Oh you said it's up to me yeah..
you said it's up to me yeah..

***********************************

| \   Slide down
| p   Pull-off

            
            
Suggest correction
Creating personal tab
Creating personal tab
You can edit any tab online and save it as your Personal.

You can edit, replace or remove any tab part or add personal notes – all changes will be seen only by you.

Personal tabs can be accessed anytime from any device, even offline.
Learn more »
comments
print report bad tab
guest
You may want to rate the tab now too:
select rating
Wanna post a correction for this tab? Suggest correction