Oops, an error
Loading. Please wait.

Hashtag tab

76 views 21 this week
no commentswrite comment
1 2 3 4 5
3 more votes to show rating
add to favorites
×
Save as Personal and add changes to this tab that will be seen only by you. Learn more ›
×
You can save this tab as Personal to edit and correct it or add notes. All changes will be seen only by you. Learn more »
launch autoscroll
font size
0
reset
how to read this tab
guitar tuner
edit
Autoscroll
slow
fast
+/-
esc
set tempo
stop
Artist: Jett Rebel
Song: #
Album: Venus & Mars (2014)

“I’ve got it all figured out” 
e|--------------------------|--------------------------|
B|--------------------------|--------------------------|
G|--11-11-11-11-11-11-11-11-|-11-11-11-11-11-11-11-11--|
D|--11-11-11-11-11-11-11-11-|-10-10-10-10-10-10-10-10--|
A|--------------------------|--------------------------|
E|--12-12-12-12-12-12-12-12-|-11-11-11-11-11-11-11-11--|

“Think I know what I’m talking ‘bout” 
e|--------------------------|-----------------------|
B|--------------------------|-----------------------|
G|--11-11-11-11-11-11-11-11-|-11-11-11-11-11-11-11--|
D|--9--9--9--9--9--9--9--9--|-8--8--8--8--8--8--8---|
A|--------------------------|-----------------------|
E|--10-10-10-10-10-10-10-10-|-9--9--9--9--9--9--9---|


“Think I know what I’m dealing with” 
e|------------------|------------------|
B|------------------|------------------|
G|--8-8-8-8-8-8-8-8-|-8-8-8-8-8-8-8-8--|
D|--6-6-6-6-6-6-6-6-|-6-6-6-6-6-6-6-6--|
A|------------------|------------------|
E|--8-8-8-8-8-8-8-8-|-7-7-7-7-7-7-7-7--|


“I can hardly remember it” 
e|------------------|----|
B|------------------|----|
G|--7-7-7-7-7-7-7-7-|----|
D|--6-6-6-6-6-6-6-6-|-4--|
A|------------------|-4--|
E|--7-7-7-7-7-7-7-7-|-2--|


“There will not be a sunrise” 
e|--------------------------|--------------------------|
B|--------------------------|--------------------------|
G|--11-11-11-11-11-11-11-11-|-11-11-11-11-11-11-11-11--|
D|--11-11-11-11-11-11-11-11-|-10-10-10-10-10-10-10-10--|
A|--------------------------|--------------------------|
E|--12-12-12-12-12-12-12-12-|-11-11-11-11-11-11-11-11--|

“Tears of liquor fall from my eyes” 
e|--------------------------|-----------------------|
B|--------------------------|-----------------------|
G|--11-11-11-11-11-11-11-11-|-11-11-11-11-11-11-11--|
D|--9--9--9--9--9--9--9--9--|-8--8--8--8--8--8--8---|
A|--------------------------|-----------------------|
E|--10-10-10-10-10-10-10-10-|-9--9--9--9--9--9--9---|

“I cannot bring you a sweet surprise” 
e|------------------|------------------|
B|------------------|------------------|
G|--8-8-8-8-8-8-8-8-|-8-8-8-8-8-8-8-8--|
D|--6-6-6-6-6-6-6-6-|-6-6-6-6-6-6-6-6--|
A|------------------|------------------|
E|--8-8-8-8-8-8-8-8-|-7-7-7-7-7-7-7-7--|

“Guess I just keep on telling lies” 
e|------------------|------------------|
B|------------------|------------------|
G|--7-7-7-7-7-7-7-7-|-6-6-6-6-6-6-6-6--|
D|--6-6-6-6-6-6-6-6-|-4-4-4-4−4-4-4-4--|
A|------------------|-6-6-6-6-6-6-6-6--|
E|--7-7-7-7-7-7-7-7-|------------------|

“Guess I just keep on telling lies” 
e|------------------|------------------|
B|------------------|------------------|
G|--8-8-8-8-7-7-7-7-|-6-6-6-6-6-6-6-6--|
D|--6-6-6-6-6-6-6-6-|-4-4-4-4−4-4-4-4--|
A|------------------|-6-6-6-6-6-6-6-6--|
E|--7-7-7-7-7-7-7-7-|------------------|
          

“But before every sunset”            “There be a new love I have met” 
e|------------------|-----------------|-----------------|------------------|
B|------------------|-----------------|-----------------|------------------|
G|------------------|-----------------|-----------------|------------------|
D|----6---6---6---6-|---6---6---6---6-|---8---8---8---8-|---8---8−--8−--8--|
A|----------3---3---|-4---4---4---4---|---------5---5---|-6−--6−--6−--6----|
E|--4---4-----------|-----------------|-6---6-----------|------------------|

“I tell my friends I’m in love again”       “I cannot keep ‘em out of my bed” 
e|----------------------|---------------------|-----------------------|--------------------------|
B|----------------------|---------------------|-----------------------|--------------------------|
G|----------------------|---------------------|-----------------------|--------------------------|
D|----10---10---10−--10-|−--10−--10−--10−--10-|−−−-12−−−-12−−−12−−−12-|----12−−--12−−--12−−−-12--|
A|------------7−−--7−---|-8−−--8−−−-8−−−-8−−−-|−−−−−−−−−−−−−9−−−−9−−−-|−10−−−−10−−−−10−−−-10−−---|
E|--8----8--------------|---------------------|-10----10--------------|--------------------------|

“And every time I think I’ve changed”               “I remain exactly the same”
e|-------------------------|-------------------------|-------------------------|-------------------------|
B|-------------------------|-------------------------|-------------------------|-------------------------|
G|-------------------------|-------------------------|-------------------------|-------------------------|
D|----14----14----14−-−-14-|−−--14−---14−---14-−--14−|−−--16−−−-16−−-−16−-−−16-|----16−−--16−−--16−−−-16-|
A|----------−−-11−−--11---−|-12−−--12−−--12−−--12−−−−|−−−−−−−−−-−−−13−−−−13−−−-|−14−−−−14−−−−14−−−−14−−--|
E|-12−---12----------------|-------------------------|-14----14----------------|-------------------------|

“So don’t you come and tell me I’m a mess”
e|--------------------------|-----------------------|
B|--------------------------|-----------------------|
G|-----16----16----16----16-|-----------------------|
D|--------------------------|-----------------------|
A|--14----14----14----14----|----13----13----13-----|
E|--------------------------|-14----14----14----14--|

“If someone really knows I’m a dick, it’s me I guess”
e|----------------------|------------------|
B|----------------------|------------------|
G|----10---10---10---10-|------------------|
D|----------------------|---4---4---4---4--|
A|----------------------|------------------|
E|--9----9----9----9----|-2−--2---2---2----|

[Outro]
e|--------------------------|--------------------------|
B|--------------------------|--------------------------|
G|--11-11-11-11-11-11-11-11-|-11-11-11-11-11-11-11-11--|
D|--11-11-11-11-11-11-11-11-|-10-10-10-10-10-10-10-10--|
A|--------------------------|--------------------------|
E|--12-12-12-12-12-12-12-12-|-11-11-11-11-11-11-11-11--|

e|--------------------------|-------|
B|--------------------------|-------|
G|--11-11-11-11−10−10−10−10−|−−−−−--|
D|--9--9--9--9−−9-−9−−9−−9−−|--−−4−−|
A|--------------10-10-10-10-|---4---|
E|--10-10-10-10−−−−−--−−−−−−|−−2−−--|

            
            
Suggest correction
Creating personal tab
Creating personal tab
You can edit any tab online and save it as your Personal.

You can edit, replace or remove any tab part or add personal notes – all changes will be seen only by you.

Personal tabs can be accessed anytime from any device, even offline.
Learn more »
Give kudos to tab author, rate the tab!
1 2 3 4 5
comments
print report bad tab
guest
You may want to rate the tab now too:
select rating
Wanna post a correction for this tab? Suggest correction