Oops, an error
Loading. Please wait.
We have Chord Pro version of Operator.
It's the closest thing you can get to the original song and it has interactive parts. Check out the tab »
×

Operator tab

version 2
version 2

Whole song

  • Its correct, and also is done with the timing.

Interactive

3,626 views 42 this week
no commentswrite comment
1 2 3 4 5
x 6
add to favorites
×
Save as Personal and add changes to this tab that will be seen only by you. Learn more ›
×
You can save this tab as Personal to edit and correct it or add notes. All changes will be seen only by you. Learn more »
launch autoscroll
font size
0
reset
how to read this tab
guitar tuner
backing track
0:00
0:00
edit
Autoscroll
slow
fast
+/-
esc
set tempo
stop
Author
Difficulty
About this tab version
Its correct, and also is done with the timing. Was this info helpful? Yes No
Intro: x2
  G                Bm              Am               C Bm  Am   D/f#  
|----3-----3-----|----2-----2-----|----0-----0-----|0---------------|
|----3-----3-----|----2-----2-----|----0-----0-----|--3---1-------3-|
|--4-----4-------|--4-----4-------|--2-----2-----0-|------------2---|
|------5-----0---|------4-----4---|------2-----2---|----------0-----|
|--------------0-|2-------------2-|0---------------|3-2---0---------|
|3---------------|----------------|----------------|----------2-----|
|+   +   +   +   |+   +   +   +   |+   +   +   +   |+   +   +   +   |

Verse: x2
  G                Bm              C   Bm  Am  G    C Bm  Am   D/f#  
|----3-----3-----|----2-----2-----|0---------------|0---------------|
|----3-----3-----|----2-----2-----|----3---1---0---|--3-1-0---------|
|--0-----0-----0-|--4-----4-----4-|----------------|----------------|
|------0---------|------4-----4---|--------------_-|------------0---|
|----------------|2---------------|3---2---0-------|3-2-0---0h2---2-|
|3-----------3---|----------------|------------3---|------3---------|
|+   +   +   +   |+   +   +   +   |+   +   +   +   |+   +   +   +   |

              Operator        oh could you help me  place this call
    She's living in L.A       with my best old ex  friend Ray

  Am              D7/f#            Em
|----0-----0-----|----2-----2-----|----0-----0-----|----------------|
|----1-----1-----|----1-----1-----|----0-----0-----|--3---3---3---3-|
|--2-----2-----0-|--2-----2-----2-|--0-----0-----0-|--2---2---2---2-|
|------2-----2---|------0-----0---|------2-----2---|0---------------|
|0---------------|----------------|----------------|----3---2---0---|
|----------------|2---------------|0---------------|----------------|
|+   +   +   +   |+   +   +   +   |+   +   +   +   |+   +   +   +   |

 You see the number on the matchbook is old and faded 
 A guy she said she knew well and sometimes hated

Chorus:
 G                C                G                C     D7        
|----3-----3-----|----3-----3-----|----3-----3-----|----3-----2-----|
|----0-----0-----|----1-----1-----|----0-----0-----|----1-----1-----|
|--0-----0-----0-|--0-----0-----0-|--0-----0-----0-|--0-----2-----2-|
|------0-----0---|------2-----2---|------0-----0---|------0-----0---|
|----------------|3---------------|----------------|3---------------|
|3---------------|----------------|3---------------|----------------|
|+   +   +   +   |+   +   +   +   |+   +   +   +   |+   +   +   +   |

Isn't that the way they say it goes,      but lets forget all that and

 G                Am               C D/f# Em        Bm      D
|----3-----3-----|----0-----0-----|--------0-----0-|------2-------2-|
|----0-----0-----|----1-----1-----|1---3-------0---|----2-------3---|
|--0-----0-----0-|--2-----2-----2-|----------0-----|--4-------2-----|
|------0-----0---|------2-----2---|----------------|--------0-------|
|----------------|0---------------|3---------------|2---------------|
|3---------------|----------------|----2---0-------|----------------|
|+   +   +   +   |+   +   +   +   |+   +   +   +   |+   +   +   +   |

give me the number, if you can find it, so I Can call just to tell her I'm fine and to 


  Am              D7               C                G/B
|----0-----0-----|----2-----2-----|----3-----3-----|----0-----0-----|
|----1-----1-----|----1-----1-----|----1-----1-----|----3-----3-----|
|--2-----2-----0-|--2-----2-----2-|--0-----0-----0-|--0-----0-----0-|
|------2-----2---|0-----0-----0---|------2-----2---|------0-----0---|
|0---------------|----------------|3---------------|2---------------|
|----------------|----------------|----------------|----------------|
|+   +   +   +   |+   +   +   +   |+   +   +   +   |+   +   +   +   |

show            I've overcome the blow, learned to take it well, only wish my words

  Am              C                D                C
|----0-----0-----|----3-----3-----|----2-----2-----|0---------------|
|----1-----1-----|----1-----1-----|----3-----3-----|1---------------|
|--2-----2-----0-|--0-----0-----0-|--2-----2-----0-|----------------|
|------2-----2---|------2-----2---|0-----0-----0---|2---------------|
|0---------------|3---------------|----------------|3---------------|
|----------------|----------------|----------------|------------10/3|
|+   +   +   +   |+   +   +   +   |+   +   +   +   |+   +   +   +   |

could just convince myself, that it just wasn't real,   but thats not the way it  - feels


Bridge after 2nd chorus
 G                C                G                C            
|----3-----3-----|----3-----3-----|----3-----3-----|----3-----3-----|
|----0-----0-----|----1-----1-----|----0-----0-----|----1-----1-----|
|--0-----0-----0-|--0-----0-----0-|--0-----0-----0-|--0-----0-----0-|
|------0-----0---|------2-----2---|------0-----0---|------2-----2---|
|----------------|3---------------|----------------|3---------------|
|3---------------|----------------|3---------------|----------------|
|+   +   +   +   |+   +   +   +   |+   +   +   +   |+   +   +   +   |

                  No no no no no,                   but thats not the way it feels

            
            
Suggest correction
Creating personal tab
Creating personal tab
You can edit any tab online and save it as your Personal.

You can edit, replace or remove any tab part or add personal notes – all changes will be seen only by you.

Personal tabs can be accessed anytime from any device, even offline.
Learn more »
comments
print report bad tab
guest
You may want to rate the tab now too:
select rating
Wanna post a correction for this tab? Suggest correction