Oops, an error
Loading. Please wait.

My Patch bass

1,794 views 1 this week
3 commentsread comments
1 2 3 4 5
1 last vote to show rating
add to favorites
×
Save as Personal and add changes to this tab that will be seen only by you. Learn more ›
×
You can save this tab as Personal to edit and correct it or add notes. All changes will be seen only by you. Learn more »
launch autoscroll
font size
0
reset
guitar tuner
edit
Autoscroll
slow
fast
+/-
esc
set tempo
stop
Author
Difficulty
-----------------------------------------------------------------------------
			     MY PATCH - Jim Noir
-----------------------------------------------------------------------------

Tabbed By : Andrew Cass
e-mail: E-mail my UG account 

Tuning: Standard

Intro:
G|-------------------|
D|-------------------|
A|--------3----------|
E|--1--5-----5--1----|

G|--------------------------------------------------------------------------|
D|------------------7--10--7--------------------7--10-7---------------------|
A|-----7--10--7--8-----------------7--10--7--8----------8-------------------|
E|--8---------------------------8-------------------------------------------|

Verse/ Chorus:
G|--------------------------------------------------------------------------|
D|--------------------------------------------------------------------------|
A|--------------------8-8-8-8----------------------------8-8-8-10-8---------|
E|--8--8--8--8-11-12----------12-11----8--8--8--8-11-12---------------------|

G|------------------------5-------------------------------------5-----------|
D|---------------------5-----5-------------------------------5--------------|
A|--8----8---8---10/3----------3--5-5-5-3h5--10-10-10-8h10/3----------------|
E|-----8---8---8------------------------------------------------------------|

            
            
Suggest correction
Creating personal tab
Creating personal tab
You can edit any tab online and save it as your Personal.

You can edit, replace or remove any tab part or add personal notes – all changes will be seen only by you.

Personal tabs can be accessed anytime from any device, even offline.
Learn more »
Give kudos to tab author, rate the tab!
1 2 3 4 5
comments
print report bad tab
3 comments total.
0 reply
Matt.hat. 20 Dec 07, 2009 04:23 AM

Perfect tab. :)

0 reply
camtheman3x6 10 Jan 07, 2010 10:12 AM

Hey, I have played it, and I have noticed there is 1 note that is wrong, But I will rate it 5 stars anyway =D

0 reply
Andy.C 82 Jan 08, 2010 03:55 AM

ha thanks :) which note is it? il change it asap.

guest
You may want to rate the tab now too:
select rating
Wanna post a correction for this tab? Suggest correction