Oops, an error
Loading. Please wait.

Cherokee Mist intro tab

3,376 views 1 this week
3 commentsread comments
1 2 3 4 5
x 3
add to favorites
×
Save as Personal and add changes to this tab that will be seen only by you. Learn more ›
×
You can save this tab as Personal to edit and correct it or add notes. All changes will be seen only by you. Learn more »
launch autoscroll
font size
0
reset
how to read this tab
guitar tuner
edit
Autoscroll
slow
fast
+/-
esc
set tempo
stop
Author
Difficulty
Unregistered
Cherokee Mist by Jimi Hendrix:


e|-----------------------------------------------------------------|
B|-----------------------------------------------------------------|
G|------------------------------------------3s5--------------------|
D|---3-3-3-3-3-3-3-3--8----3-3-3-3-3-3-3-3--1s3---3-3-3-3-3-3-3-3--|
A|---1-1-1-1-1-1-1-1--6----1-1-1-1-1-1-1-1--------1-1-1-1-1-1-1-1--|
E|-----------------------------------------------------------------|

e|-------------------------------------------------------|
B|-------------------------------------------------------|
G|-5s3s5-------------------------------------------------|
D|-3s1s3--3-3-3-3-3-3-3-3--8---6--3-3-3-3-3-3-3-3--6--8--|
A|--------1-1-1-1-1-1-1-1--6---4--1-1-1-1-1-1-1-1--4--6--|
E|-------------------------------------------------------|

e|------------------------------------------------------------------------------------------|
B|----------------------------------------------------------10------12b-12---12b-12---------|
G|----------------------8-------------------------------7s9------------------------9s11--9--|
D|-3-3-3-3-3-3-3-3------8-------3-3-3-3-3-3-3-3---------------------------------------------|
A|-1-1-1-1-1-1-1-1--6------4----1-1-1-1-1-1-1-1---------------------------------------------|
E|------------------------------------------------------------------------------------------|

e|--------------------------------------------------------------------|
B|-------10-------------------10--------------------------------------|
G|--9s11-----7s9---7-----7s9-----7s9---7------------------------------|
D|-------------------9-------------------9----------------------------|
A|--------------------------------------------------------------------|
E|--------------------------------------------------------------------|



************************************

| b  Bend
| s  slide

************************************

            
            
Suggest correction
Creating personal tab
Creating personal tab
You can edit any tab online and save it as your Personal.

You can edit, replace or remove any tab part or add personal notes – all changes will be seen only by you.

Personal tabs can be accessed anytime from any device, even offline.
Learn more »
Give kudos to tab author, rate the tab!
1 2 3 4 5
comments
print report bad tab
3 comments total.
-1 reply
RockaRolla1 25 Jul 28, 2014 06:39 AM, edited on October 9 2014, 08:37 am

This tab should be removed.

-1 reply
RockaRolla1 25 Jul 28, 2014 06:39 AM

Lack of accuracy.

+1 reply
matthewmanlol 13 Oct 09, 2014 03:59 AM, edited at 08:34 am

Bad

guest
Wanna post a correction for this tab? Suggest correction