Oops, an error
Loading. Please wait.
We have an official Little Wing tab made by UG professional guitarists. Check out the tab »
×
136,551 views 165 this week
5 commentsread comments
1 2 3 4 5
x 13
add to favorites
×
Save as Personal and add changes to this tab that will be seen only by you. Learn more ›
×
You can save this tab as Personal to edit and correct it or add notes. All changes will be seen only by you. Learn more »
launch autoscroll
font size
0
reset
how to read this tab
guitar tuner
backing track
0:00
0:00
edit
Autoscroll
slow
fast
+/-
esc
set tempo
stop
Author
Unregistered
O.k. ... here's some HENDRIX....Little Wing Intro..


e|---------12\-----------------------------------------3-5-3-3-------|
B|---------12\----------------------------5------------3-------------|
G|------X--12\--------X-----------0---5---5------0-------------------|
D|------X-------------X----X-------5--5---7\-------------------5-----|
A|------X--12\--------X----X--0-2--5-7-------------------------------|
E|------------0------------X-----------------2\3---------------------|


e|------------------------------------------------------------------|
B|----3---3----------------------------------------5----------------|
G|--4-5---5--4-5--4---------------------5--------5-7----------------|
D|------------------5-------------------5--------------5-7--5-------|
A|--------------------------------5--7----7------------5-7--5-------|
E|-----------------------5-------------------------------------5-7\-|


e|-----------------------------------------------------9--10--9-----|
B|----------8-10-8-------------------------------------7--10--7-----|
G|----------7------7-------7--7--7-----7-------------------7--7-----|
D|-------------------9---7-7--9--7-7---7------------9---------------|
A|-------------------7-7-10--------10--7----------------------------|
E|----0--------------------------------------7----------------------|


e|----------7--------------------------------------------------------|
B|---7-10---7--------------------------------------------------------|
G|------------7------6------------5--5-5--5------------5-5--5--------|
D|------------9------8\7--------5-7--9-7--5--5-----5---5-7--5--------|
A|-----------------X-------------------------8-----7-----------------|
E|-------------7-6-----------5---------------------------------5\7---|


e|-----------5/7--4--5-----5\3---------------------------------------|
B|-----------3/5-----3-----5\1--1----1----1------------------3-1-0---|
G|-------0---0-------0-----0----0----0----0--------2----2----2-------|
D|-------5---5/7-----------5\3-------3----3--------2--2--------------|
A|---------------------------------------------0-3--------------3----|
E|--2/3-----------------0---------1-----1----1-----------------------|


e|----------------------------------------------------------------------|
B|------------------------------7---------------------------------------|
G|--------------------------7---7------7---7------------7---------------|
D|----------7-------7-------7---9------7---7---7---7----7---------------|
A|---3/5-----5--------5------------------------10--7--------------------|
E|----------------------------------------------------------------------|



************************************

| /  Slide up
| \  Slide down

************************************

            
            
Suggest correction
Creating personal tab
Creating personal tab
You can edit any tab online and save it as your Personal.

You can edit, replace or remove any tab part or add personal notes – all changes will be seen only by you.

Personal tabs can be accessed anytime from any device, even offline.
Learn more »
comments
print report bad tab
5 comments total. Showing first comments.
0 reply
MINI_METAL_MAN 20 Apr 30, 2006 10:30 PM

not bad

0 reply
Guitars R us 10 Feb 05, 2007 03:20 PM

---------12\---------------------------------------3-/5/3--3---
---------12\----------------------------------------3------3----
------X--12\--------X-----------0---5---5-----------------------
------X-------------X----X----------5---5/7------5-----------5------
------X--12\--------X----X--0-2--5/7------------------------------
------------0------------X-----------------2\3--------------------

thats how it should be

0 reply
Guitars R us 10 Feb 05, 2007 03:21 PM

mostly u got it wrong

guest
Wanna post a correction for this tab? Suggest correction