Oops, an error
Loading. Please wait.

Villanova Junction tab

version 1
version 1

Whole song

Interactive

39,528 views 60 this week
3 commentsread comments
1 2 3 4 5
x 13
add to favorites
×
Save as Personal and add changes to this tab that will be seen only by you. Learn more ›
×
You can save this tab as Personal to edit and correct it or add notes. All changes will be seen only by you. Learn more »
launch autoscroll
font size
0
reset
how to read this tab
guitar tuner
backing track
0:00
0:00
edit
Autoscroll
slow
fast
+/-
esc
set tempo
stop
Author
Difficulty
Villanova Junction
music by Jimi Hendrix
from the album Jimi Hendrix:Woodstock


Std. Tuning

e|---------------------------------------------------------------------------------|
B|-----------8---------------------------------------------------------------------|
G|------5-7----7/9\7\5-7-------x-x-5-----------------------------------------------|
D|-7-7-------5-----------7---7-x-x-7--x-7--7--7--x--x--x--5^7-5-7-5-------------7--|
A|------3-5----5/7\5\3-5-------x-x----------------------------------5^7^5----------|
E|-5-5-------------------5---5-----5--x-5--5--5--x--x--5-------------------8-5--5--|

e|---------------------------------------------------------------------------|
B|----------------------------8/10-10\8--------------------------------------|
G|------------------------5-7-----------7/9-7-5-7-----------------------5----|
D|--7--7--x--7--x--7----7-----5/7---7\5------------x--x--x--x--x-------------|
A|------------------------3-5-----------5/7-5-3-5--x--x--x--x--x--5^8^5---5--|
E|--5--5--x--5--x--5----5--------------------------x--x--x--x--x-------------|


e|--------------------------------5---------------------------------------------|
B|--------------------------------5----5----------------------------------------|
G|---x---------------5^7-5----------------5^7-5----------------8-7-6-5----------|
D|-7-x-----------5-7-------7-5-5-----7-7--------5-7-5---------------------------|
A|-5-----(5)-5-7--------------------------------------7-8--8-8-8-7-6-5--5-5-5-5-|
E|-----------------------------------5------------------------------------------|


e|------------------------------------------------------------------------------------|
B|----------------------------------------------8-----------------5-------------------|
G|-----------5^7^5------------------------5--7-----7/9\7\5-5/7------5^7^5-------------|
D|--------7--------5^7-5^7-------5-----7--------5--------------7----------5^7---------|
A|-------------------------5^7-5----------3--5-----5/7\5\3-3/5----------------7-7^5---|
E|-8hb-5---------------------------5---5-----------------------5--------------------5-|


e|----------------------------------------------------------------------------|
B|-------8/10\8---------------------------------------------------------------|
G|---------------7/9\5/7----------x---------5^7^5-------------5-7-5\4^5^4-4/5-|
D|-------5/7 \5-----------7\5--x/-x-x\-x----------7---------------------------|
A|---------------5/7\3/5-------x/-x-x\-x----------------7-9^7-----------------|
E|-5--0-------------------5\3--x/---x\-x--5---------0-------------------------|

                                                            (W/bar)
               ~~~                                          ~~~~~~~
e|------------------------------------------------------------------------------------|
B|------------------------------------------------------------------------------------|
G|-/7\2/5\4/5----5/9\2/10--9^10^9\7^9^7\5^7^5\4^5^4\2^0--0wb(w/bar)-----------------x-|
D|-------------------------------------------------------------------x-------x------x-|
A|-------------------------------------------------------------------x-x/-x\-x----x-x-|
E|-------------------------------------------------------------------x-x/-x\-x-x\-x---|


                  ~~~~~               ~~~
e|-----------------------------------------------------------------------------|
B|-------------------------------9---------------------------------------------|
G|-------------------------10------10----5^7-5---------------------------------|
D|--------------------5/10----10---------------7-6-5---5-5/6-5---5/7-5---------|
A|--------3-5/7-8------------------------------------8---------8-------6^5-----|
E|-3\-/5-------------------------------------------------------------------8^5-|

                                                                                     ~~~~
e|-----------------5-------5------------8-----------------------------------------------|
B|-----------------5-5-5---5----------8---8---------------------------------------------|
G|-----------------5-5-5---5--------7-----7-7---7--------------------7-7^9^7\5^7^5\4----|
D|-5^7(tr'''''''')-7---7-7--------6-----------6-6-6--7--7------5-7/9--------------------|
A|---------------------------------------------------------5-7--------------------------|
E|---------------------------0--6--------------------5--5-------------------------------|


                                                   ~~~~
e|----7-5-8-5^7-5^7^5---5---------------------------------------------------------------|
B|----5---------------8---8-5^7^5-------------------------------------------------------|
G|----5---------------------------7^5^7^5--5^7-7/9--------9-8-7-5-7-5-------------------|
D|-x-------------------------------------7--------------7-------------7\6-5-------------|
A|-x--------------------------------------------------7---------------------7^6^5\3^5^3-|
E|-x------------------------------------------------------------------------------------|


                                               ~~~~                                       ~~~~~~
e|------------------------------------------------7-7/8-5-7-8-5^7-7/8-8/10-10-10/12------------|
B|------------------------------------------------5---------------------------------10-10------|
G|---------------5/7--7/9wb-\5--7---4^5^4---------5--------------------------------------------|
D|-----------5^7------------------7-------5-4--------------------------------------------------|
A|-------5/7-----------------------------------------------------------------------------------|
E|-5^3^5---------------------------------------------------------------------------------------|


                                        ~~~~~~~~~
e|------------------------------------------------------------8wb-8^6------------------|
B|-10-11-13-10^11^10\8^10^8\7^8^7\5^7^5---------5-7-7wb-7-5/6---------8wb-8-6^8^6------|
G|---------------------------------------------------------------------------------5/7-|
D|-------------------------------------------------------------------------------------|
A|-------------------------------------------------------------------------------------|
E|-------------------------------------------------------------------------------------|


                       ~~~~~
e|---5---8-5^7^5-------------5-----5---5--------------5-8-5-----7------5--|
B|-6---5---------7-5-------5---5-8---8---5--------3/5-------5-------------|
G|-------------------7wb-------------------5------------------7----7\5----|
D|-------------------------------------------7^5--------------------------|
A|------------------------------------------------------------------------|
E|------------------------------------------------------------------------|


e|-----------------------------------------------------------------------------|
B|------------8----------------------------------------------------------------|
G|------5--7-----7/9\7\5/7-----------------------7-------7---7---7---7------9--|
D|-8-8--------5-------------7\5/7--------------7-------7---9---9---9---9/11----|
A|------3--5-----5/7\5\3/5--------------7--7/9------10-------------------------|
E|-5-5----------------------5\3/5--0-8-----------------------------------------|


e|--------------------------------------------------------------------|
B|--------------------------------------------------------------------|
G|----11-11----9---------5---4----------------------------------------|
D|-12-------11---9-9\7-7---5------5---5---5-----5---5---7---5---------|
A|------------------------------7---6---5---------------------3----5--|
E|------------------------------------------8-7---6---5---3-----------|


           trem pick''''                       trem pick''''
e|-------------------------------------------15---------------------------|
B|-/10--10------------10/13-13-13-13/15-15\----------------15/-15\-15-----|
G|-------------------------------------------12-----------------------14\-|
D|-/ 7--7--------------7/10-10-10-10/12-12\----------------12/-12\-12-----|
A|--------------------------------------------------------------------12\-|
E|------------------------------------------------------------------------|


e|----------------------------------------------------------------------------|
B|----------------------------------------------------------------------------|
G|----12-14-14/16-16-16\14-16-12---14/16-14/16-14----------------------14/16--|
D|-14---------------------------------------------14/16-14-16\---14/16--------|
A|----10-12-12/14-14-14\12-14-10---12/14-12/14-12----------------------12/14--|
E|-12---------------------------------------------12/14-12-14\---12/14--------|

                                                                                           fin
e|---------------------------------------------------------------------------5---------------7-|
B|-------------------------------------------------------------8-------------5---------------5-|
G|-18\16-14\12-12\10-----10-12-10----10-10\7-5-------------5-7----7/9-7\5----5---5^7^5-------5-|
D|--------------------10----------10-----------5\3--3-5/7------5----------7--7---------5^7---7-|
A|-16\14-12\10-10\8-------8-10--8-----8--8\5-3-------------3-5----5/7-5\3------------------7---|
E|---------------------8-----------8-----------3\1--1-3/5-----------------5----5-------------5-|


You played an accurate transcription of Villanova Junction, thank you :-))))

The piece is in A minor scale (5th fret), and easy to play once you get used to
play the octave riffs.

For the main octave riff, I always use my thumb for the lower strings of the
first 4 notes and play 5th note and octave slides with my index finger
and pinky:


e|--------------------------|
B|-----------8--------------|
G|------5-7----7/9\7\5-7----|
D|-7-7-------5-----------7--|
A|------3-5----5/7\5\3-5----|
E|-5-5-------------------5--|
   T T  T T              T

I fret 6th and 5th string like so, but you'll find the most comfortable fingering
position for yourself after a few runs through the song. This is just the fingering
I use. Furthermore, fret 6th (low E) string with your thumb throughout the entire
song.

You can improvise on minor scales yourself and stretch the song to 5-10 minutes.


************************************

| ^           Hammer on or Pull off
| hb          1/2 step bend
| wb          1 step bend
| br          bend and release
| bp          pre-bend
| /           Slide up
| \           Slide down
| ~~~         Finger vibrato
| tr''        trill until dots disappear
| trem pick   tremolo pick


************************************

            
            
Suggest correction
Creating personal tab
Creating personal tab
You can edit any tab online and save it as your Personal.

You can edit, replace or remove any tab part or add personal notes – all changes will be seen only by you.

Personal tabs can be accessed anytime from any device, even offline.
Learn more »
comments
print report bad tab
3 comments total.
0 reply
DynamiteRabbit 10 Jul 12, 2010 02:53 PM

Very nice tab, 5 stars
Love how the octaves sound

0 reply
francomanca 10 Sep 02, 2013 07:18 AM

Thank you all for these tans...finally can try to get into this amazing masterpiece.

One question...what the x on tab are for? Is not mentioned at th beginning of tabs....

Thought they meant strumming strings without fretting....not so sure anyway...

Any suggestion?

Regards

Franco

0 reply
Bauka 50 Nov 20, 2013 11:11 AM

its kind of a muted strum. if you listen to the woodstock recordning it makes sense

guest
You may want to rate the tab now too:
select rating
Wanna post a correction for this tab? Suggest correction