Oops, an error
Loading. Please wait.

Voodoo Chile bass

version 1
version 1

Whole song

Interactive

30,547 views 6 this week
6 commentsread comments
1 2 3 4 5
x 11
add to favorites
×
Save as Personal and add changes to this tab that will be seen only by you. Learn more ›
×
You can save this tab as Personal to edit and correct it or add notes. All changes will be seen only by you. Learn more »
launch autoscroll
font size
0
reset
guitar tuner
edit
Autoscroll
slow
fast
+/-
esc
set tempo
stop
Author
Unregistered
Artist: Jimi Hendix
Song: Voodoo Chile                          
Bass Performance: Jack Casady
Drop to D#

G|--------------------|
D|--------------------|
A|--------------------|
D|--------------------|

G|-----------------------------|------------------------------|
D|-----------------------------|------------------------------|
A|--7--7-7-7--7-7-7-7-7--7--7--|--5-6-7-7-7--7--7-7-7-7-7--7--|
D|-----------------------------|------------------------------|

G|-----------------------------|------------------------------|
D|-----------------------------|------------------------------|
A|--5-6-7-7-7--7--7-7-7-7-7----|--5-6-7-7-7--7--7-7-7-7-5--6--|
D|-----------------------------|------------------------------|

G|------------------------------|-----------------------------|
D|------------------------------|-----------------------------|
A|--6/7-7-7-7--7--7-7-7---5--6--|--7--7-7----7--7-7----5h6-7--|
D|----------------------7-------|---------0---------7---------|

G|------------------------------|------------------------------|
D|------------------------------|------------------------------|
A|--6/7-7-7-7--7--7-7-7--5---5--|--5-6-7---7--7--x-7-7-7-5-----|
D|-------------------------7----|--------7------------------7--|

G|----------------------------|-----------------------------|
D|----------------------------|-----------------------------|
A|--7---7-7--7---7-7-7-x-5----|--7--7-7-7--7--7-7-7-7-5-----|
D|-------------------------7--|--------------------------7--|

G|------------------------------|------------------------------|
D|------------------------------|------------------------------|
A|--7--7-7-7--7--7-7-5-5-----5--|--7--7-7-7--7--7-7-7-7-5---5--|
D|-----------------------7-7----|-------------------------7----|

G|-----------------------------|------------------------------|
D|-----------------------------|------------------------------|
A|--5--7--7--7-7-7--5------5-6-|--7--7-7-----7-7--5-----5--6--|
D|---------------------7-7-----|---------0-0--------7-7-------|

G|-------------------------------|-----------------------------|
D|-------------------------------|-----------------------------|
A|--7--7-7-5---5-6-7-7-5---5--6--|--7--7---5---7--7-x-7--5-----|
D|-----------7-----------7-------|-------7---7--------------7--|

G|----------------------------------|-----------------------------|
D|----------------------------------|-----------------------------|
A|--5-6-7-7-7---5-6-7-0-7-7-5---5-6-|--7--7-7-7--7--7-7-7--5--x-x-|
D|------------7---------------7-----|-----------------------------|

G|--------------------------------|-----------------------------|
D|--------------------------------|-----------------------------|
A|--5-6-7-0-7--7-7-7-0-7--5---5-6-|--7--7-7-7-7-7---7-7---5--6--|
D|--------------------------7-----|---------------------7-------|

G|--------------------------------|-------------------------------|
D|--------------------------------|-------------------------------|
A|--6/7-7-7-5-6-6-6-7-x------5-5--|--6/7-7-7-7-7-7--7-7-7--5---5--|
D|----------------------0--7------|--------------------------7----|

G|---------------------------------|--------------------------------|
D|---------------------------------|--------------------------------|
A|--6h7-7-7-5--5-5-5---5-5---5-6-7-|--5--5-5-6-6-6-7--7-5-5-5---5-6-|
D|-------------------7-----7-------|--------------------------7-----|

G|------------------------------|-------------------------------|
D|------------5-----------------|-------------------------------|
A|-----5-5-7-----x-7-7----5-6-7-|--7--7-7-7--7--7-7-7-7-------5-|
D|--0-------------------7-------|-----------------------7-7-7---|

G|----------------------------3-5-|----------7---------------------|
D|-----------------2-3--4-4-5-----|----4-5-7----7-7-6-6-5-5-4------|
A|--3h5-5-0-5--3-3----------------|--5-------------------------5-6-|
D|--------------------------------|--------------------------------|

G|------------7h9-7h9-9-9------|--9-9-9-x-7h9-7--------9---------|
D|--------9----------------7h9-|----------------9--7-5/---7-8-9--|
A|--7---7/---------------------|---------------------------------|
D|-----------------------------|---------------------------------|

G|-------------------------------|-----------------------------|
D|--6/7-7--7--7-7--7-7-7-5---5-5-|-----------------------------|
A|-------------------------7-----|--6h7-5-6-7--7-7---5----5-6--|
D|-------------------------------|----------------------7------|

G|------------------------------|------------------------------|
D|------------------------------|------------------------------|
A|--5-6-7--5-5-6-7---x-7-5---5--|--5-6-7-5-7--7--x-7-5---5--6--|
D|-------------------------7----|----------------------7-------|

G|-------------------------------|------------------------------|
D|-------------------------------|------------------------------|
A|--6-7-7-5----5-6-7-7-7--5------|--5-6-7-7-7-5-6--x-7-7--5-----|
D|----------7----------------7-7-|---------------------------7--|

G|------------------------------|-----------------------------|
D|------------------------------|-----------------------------|
A|--5-6-7-7--5-6--7--7--5-7-----|--0-5-6--7--7--7-7-7----5-5--|
D|--------------------------7-7-|----------------------7------|

G|--------------------------------|-------------------------------|
D|--------------------------------|-------------------------------|
A|--5-7-7-7-5-5-6-6-7-7-7---5--0--|--5-6-7-7----7-7-7-5-7-5----5--|
D|------------------------7-------|-----------7--------------7----|

G|------------------------------|-------------------------------|
D|------------------------------|-------------------------------|
A|--5h6-7--7---5-6-6-7-7--7--7--|--5h7-7--x-x-7-7-5-6-7--5---5--|
D|-----------7------------------|--------------------------7----|

G|--------------------------------|-------------------------------|
D|--------------------------------|-------------------------------|
A|--5h7-7-0-5--5-6-7--7-7-5---5-6-|--6/7-7-x-7--5-6-7-5-----5--6--|
D|--------------------------7-----|---------------------7-7-------|

G|----------------------------|----------------------------|
D|----------------------------|----------------------------|
A|--7--7-7-7--7--7-7-7-----5--|--6/7-7-7-7--7---7-7---7-7--|
D|----------------------7-----|----------------------------|

G|--------------------------------|--------------------------------|
D|--------------------------------|--------------------------------|
A|--5-6-7-7-5--7--7-7-7-7-7-x-7-7-|--5-6-7-5-5--6--7-x-7-7-x-x-5-5-|
D|--------------------------------|--------------------------------|

G|-----------------------------|------------------------------|
D|-----------------------------|------------------------------|
A|--5h7-7p5-5--7--x-7-7---7--7-|--7--7-7-7--7--x-x-7-7--7-7-7-|
D|-----------------------------|------------------------------|

G|------------------------------|-------------------------------|
D|------------------------------|-------------------------------|
A|--5-6-7-7-7--7--5-6-7--7--5-6-|--7--7-7-7-7-7--x----7-x-7-7-7-|
D|------------------------------|-------------------7-----------|

G|------------------------------|--------------------------------|
D|------------------------------|--------------------------------|
A|--5-6-7-5-7--7-7--7-7---5-5-6-|--7--7-7-7--7-7-5-6-7-7-5---5-6-|
D|------------------------------|--------------------------7-----|

G|------------------------------|------------------------------|
D|------------------------------|------------------------------|
A|--6-7-7---5---7--7-7-7--5-----|--7--7-7-7---7--7--7-7-5------|
D|--------7---7--------------7--|-----------7-------------7-6--|

G|-----------------------------|--------------------------------|
D|-----------------------------|--------------------------------|
A|--6/7-7-7-7--7---7-5-----x-x-|--5/7-7-7-7--7--7-x-7-7-5-------|
D|----------------------7------|--------------------------x-7-7-|

G|------------------------------|----------------------------|
D|------------------------------|----------------------------|
A|--5-6-7-7-7--7-7--5-5-----5-7-|--6-7-7-7-7--7---7-5--------|
D|-----------------------7------|----------------------7--3--|

G|--------------------------------|--------------------------------|
D|--------------------------------|--------------------------------|
A|--7--7--7--7-7-5-5-7-5----5--6--|--7--7--7--7--7--7-5----5-5-6-6-|
D|-----------------------7--------|---------------------7----------|

G|-------------------------------|----------------------------------|
D|-------------------------------|----------------------------------|
A|--6-7-7-7-7--7-7-7-7-5----5-6--|--6-7-7-7-5-6-7-7-5-6-7-5-5-6-7-5-|
D|------------------------7------|----------------------------------|
                                                              
G|---------------------------3-5-|----7--------------------------|
D|-----------------2--3--4-5-----|-------7-8-7-5-5-3-3-----------|
A|--0h3-3-0-3--3-3---------------|--5------------------6--5--5-5-|
D|-------------------------------|-------------------------------|
                                                           
G|------------------7-7-8-9--9--|--9--9--------------7-8-9--9---|
D|---------6-7-8--9-------------|--------6-7-7-7-8-9----------7-|
A|--7--7-7----------------------|-------------------------------|
D|------------------------------|-------------------------------|

G|--------------------------------|--------------------------------|
D|--------------------------------|--------------------------------|
A|--5-6-7-7-7-7-7------7--5---5-6-|--6-7-7-7-7-7-7--7-5----5-5-6-6-|
D|-----------------5-7------7-----|----------------------7---------|

G|---------------------------------|--------------------------------|
D|----------5----------------------|--------------------------------|
A|--6/7-0-5----5-6-7-x-5---5---5-6-|---7-7-5-5-6-7-5-7-x-7-7-5---6--|
D|-----------------------7---7-----|---------------------------7----|

G|------------------------------|-------------------------------|
D|------------------------------|-------------------------------|
A|--5-6-7-0-5-6-7---7--0-7--0-5-|--7p0-7-7-7--7--0-5-6-7-7--0-7-|
D|------------------------------|-------------------------------|

G|--------------------------------|-------------------------------|
D|--------------------------------|-------------------------------|
A|--7-0-7-7-0-7-7p0-7--0-7-7-0-7--|--0-7-7-0-7-7-0-7--0-7--0-7-7--|
D|--------------------------------|-------------------------------|

G|--------------------------------|-----------------------------|
D|--------------------------------|-----------------------------|
A|--5h7-7-0-7-7-5h7-x-0-7--7-5-5--|--7-7--7-7--7-7--7-7--5-5----|
D|--------------------------------|--------------------------7--|

G|--------------------------------|--------------------------------|
D|--------------------------------|--------------------------------|
A|--5-7-7-0-7-x-7--7-7-7-0-5-5-6--|--7-7-7-x-7--7--7-5-5---5---5-5-|
D|--------------------------------|----------------------7---7-----|

G|-------------------------------|------------------------------|
D|-------------------------------|------------------------------|
A|--6h7-7-5---5-7--7--7--5---5-6-|--7-7-7---7----7----7----5-6--|
D|----------7--------------7-----|--------7----7----7----7------|

G|------------------------------|--------------------------------|
D|------------------------------|------------------------5-x-----|
A|--6h7--7-7-7-7-7--5-5---5--6--|--7------7-7---7-7-5-5------5-5-|
D|----------------------7-------|----7--7-----7------------------|

G|--------------------------------|-----------------------------|
D|---------------------5--5-5-5/7-|--9--------------------------|
A|--5-7----7-7-5---7-7------------|-----7-7-5--7-5--------------|
D|-------7-------7----------------|-----------------7-3---5-6-7-|

G|------------------------------|--9-7-------------------------|
D|------------------------------|------9-7-5-------------------|
A|--5-6-7-7-7--7-7--7----5-7-0--|-------------7-7--5h7--5-6-7--|
D|---------------------7--------|------------------------------|

G|--9-7--------------------------|--9p7------------------9-9-----|
D|------9-7-6--------------------|------9-7-6-------5-9------8h9-|
A|-------------7-7--5-7-5-5-5-6--|-------------7-7---------------|
D|-------------------------------|-------------------------------|

G|--9----------------------------|--9--------------9-9-9---------|
D|----9-7-5--------------8-9-8h9-|-----9-8-7-6-----------8h9-8h9-|
A|----------7--7--7-7-5----------|-------------7-----------------|
D|-------------------------------|-------------------------------|

G|---9-7----------9--------------|--9p7----------------------------|
D|-------9-7-6-------8h9-8-9-8-9-|------9-7-5-4-------7h9--7-9-7-9-|
A|-------------7-----------------|---------------7--7--------------|
D|-------------------------------|---------------------------------|

G|--9-7---------------------------|--------------------------------|
D|------9-7-6---------------------|--------------------------------|
A|------------5-7--7-5-7-7-5---5--|--7--7-7-7-7---7-7--7-7-7-5-5-5-|
D|---------------------------7----|-------------7------------------|

G|--------------------------------|--------------------------------|
D|--------------------------------|----------5-5-------------------|
A|--7--7-7-5-5-7--7-0-7-7---5-6-7-|--4-5-7-7-----7--7-5-7-0-5-5----|
D|------------------------7-------|-----------------------------7--|

G|-------------------------------|-------------------------------|
D|-------------------------------|-------------------------------|
A|----7-7---5-5-6-7--6-7-7-7--7--|--5p0-7-7---------7--0-7--0-7--|
D|--6-----5----------------------|----------7-6-5-6--------------|

G|----------------------|
D|----------------------|
A|--0-7--0-7------------|
D|----------------------|


************************************

| h  Hammer-on
| /  Slide up
| x  Dead note
| p  Pull-off

************************************

            
            
Suggest correction
Creating personal tab
Creating personal tab
You can edit any tab online and save it as your Personal.

You can edit, replace or remove any tab part or add personal notes – all changes will be seen only by you.

Personal tabs can be accessed anytime from any device, even offline.
Learn more »
comments
print report bad tab
6 comments total. Showing first comments.
0 reply
jcwear 91 Sep 16, 2004 08:00 PM

its probably entirely correct but its very confusing for the poor bassist in my band.
I applaud you for being able to detect the bass in Voodoo Chile because I found it very difficult indeed!!!##

J-C

0 reply
Bass_MaN_900 10 Mar 08, 2006 08:27 AM

v. good but would be helpful to say what part of the song each bit is

0 reply
bassboss862 10 May 14, 2007 01:30 PM

dude its called a friggin repeat sign

guest
Wanna post a correction for this tab? Suggest correction