Oops, an error
Loading. Please wait.
We have an official Hear You Me tab made by UG professional guitarists. Check out the tab »
×
4,039 views 3 this week
1 commentread comment
1 2 3 4 5
x 3
add to favorites
×
Save as Personal and add changes to this tab that will be seen only by you. Learn more ›
×
You can save this tab as Personal to edit and correct it or add notes. All changes will be seen only by you. Learn more »
launch autoscroll
font size
0
reset
guitar tuner
edit
Autoscroll
slow
fast
+/-
esc
set tempo
stop
Author
Difficulty
                   --Hear You Me by Jimmy Eat World--
                      --Tabbed by aBoVeAvErAge x3--

This song is in 3/4 time so count 1,2,3,1,2,3,1,2,3 etc.

KEY:

* = hold for 12 beats
/ = vibrato
> = hold for 3 beats
^ = hold for 6 beats

Intro (play as soon as the drum starts)

G---------------------------------------------------------------]
D---------------------------------------------------------------]
A---------------------------------------------------------------]
E---0------------7/-----------8-9/------------5/----------------]
    *            *              *             *


Verse 1

G---------------------------------------------------------------]
D---------------------------------------------------------------]
A---------------------------------------------------------------]
E---0------------7/-----------8-9/------------5/----------------]x2
    *            *              *             *
Chorus

G-----------------------------------------------------------------]
D-----------------------------------------------------------------]
A-------2---0----------2---0----------2-------0-------2---0-------]
E---0--------------0--------------0-------2-------0---------------]
    >   >   ^      >   >   ^      >   >   >   >   >   >   ^


G---------------------------------------------------------------]
D---------------------------------------------------------------]
A---------------------------------------------------------------]
E---0------------7/-----------8-9/------------5/----------------]
    *            *              *             *


Verse 2

G---------------------------------------------------------------]
D---------------------------------------------------------------]
A---------------------------------------------------------------]
E---0------------7/-----------8-9/------------5/----------------]
    *            *              *             *


Chorus

G-----------------------------------------------------------------]
D-----------------------------------------------------------------]
A-------2---0----------2---0----------2-------0-------2---0-------]
E---0--------------0--------------0-------2-------0---------------]
    >   >   ^      >   >   ^      >   >   >   >   >   >   ^


Bridge

G---------------------------------------------------]
D---------------------------------------------------]
A---------------------------0-0-0-0-0-0-0-0-0-0-0-0-]
E---0-0-0-0-0-0-0-0-0-0-0-0-------------------------]

G-------------------------------------------------]
D-------------------------------------------------]
A-------------------------0-0-0-0-0-0-0-0-0-0-0-0-]
E---0-0-0-0-0-0-0-0-0-2---------------------------]
                      >

Chorus

G-----------------------------------------------------------------]
D-----------------------------------------------------------------]
A-------2---0----------2---0----------2-------0-------2---0-------]
E---0--------------0--------------0-------2-------0---------------]
    >   >   ^      >   >   ^      >   >   >   >   >   >   ^

Bridge 2

G----------------]
D----------------]
A----------------]
E---0------------]
(play this note loud and let it ring out, after this note there is no bass until the
again.This is the only part of the songs where you actually have to wait until the bridge
done to go on to the next part of the song. For this bridge there is mostly vocals with 
soft acoustic and key board in the back. Wait until the drums comes in to come in.)

Chorus

G-----------------------------------------------------------------]
D-----------------------------------------------------------------]
A-------2---0----------2---0----------2-------0-------2---0-------]
E---0--------------0--------------0-------2-------0---------------]
    >   >   ^      >   >   ^      >   >   >   >   >   >   ^
G-----------------------------------------------------------------]
D-----------------------------------------------------------------]
A-------2---0----------2---0----------2-------0-------2---0-------]
E---0--------------0--------------0-------2-------0---------------]
    >   >   ^      >   >   ^      >   >   >   >   >   >   ^


Outro

G----------------]
D----------------]
A----------------]
E---0------------]
(play this note loud just like you did for the bridge 2)

If you are having trouble counting in the way I put it then you can always listen and
what time you should come in. In this song there are a lot of parts where it's just
and there are no vocals, but for each part of the song play everything right after each 
For example, when you are done with the intro go straight into the verse and when you are
with the verse go straight into the chorus. Don't wait until you hear lyrics because 
will mess up your timeing.Play along with the song and you'll be good to go.

P.S.--This is my first tab.

P.P.S.--Enjoy!! and hope this helps!!

            
            
Suggest correction
Creating personal tab
Creating personal tab
You can edit any tab online and save it as your Personal.

You can edit, replace or remove any tab part or add personal notes – all changes will be seen only by you.

Personal tabs can be accessed anytime from any device, even offline.
Learn more »
Give kudos to tab author, rate the tab!
1 2 3 4 5
comments
print report bad tab
1 comment total.
0 reply
sadforthenotes 51 Nov 23, 2012 01:42 PM

This is simple and good for the tab i think, but in your texts it seems as there are always words at the very right edge missing, could that be right? Because it's kinda confusing

guest
You may want to rate the tab now too:
select rating
Wanna post a correction for this tab? Suggest correction