Oops, an error
Loading. Please wait.
We have an official Hear You Me tab made by UG professional guitarists. Check out the tab »
×

Hear You Me chords

version 4
version 4

Whole song

38,662 views 60 this week
1 commentread comment
1 2 3 4 5
x 13
add to favorites
×
Save as Personal and add changes to this tab that will be seen only by you. Learn more ›
×
You can save this tab as Personal to edit and correct it or add notes. All changes will be seen only by you. Learn more »
launch autoscroll
font size
0
reset
transpose
0
reset
display chords
guitar tuner
edit
Autoscroll
slow
fast
+/-
esc
set tempo
stop
Strumming
There is no strumming pattern for this song yet. and get +5 IQ
NOTE: These are the chords to the instrumental version of the song

CAPO 4

INTRO
C, G, Am, F

C
There's no one in town I know
G
You gave us some place to go
Am
I never said thank you for that
F
'thought I might get one more chance

C                           G
What would you think of me now?
(G)                       Am
So lucky, so strong, so proud
(Am)                         F
I never said thank you for that
(F)
Now I'll never have a chance


CHORUS
      C     G       F
May angels lead you in
 C        G       F
Hear you me my friends
      C        G           F
On sleepless roads, the sleepless go
      C      G      F
May angels lead you in

BELL PART
e ---------1-----------------3-1-------------1---------------1-------|
B -1-1-3-5---5-1-3---3-5-3-5-----5---1-1-3-5---5-1-3---1-3-5---5-1-1-|
G -------------------------------------------------------------------|
D -------------------------------------------------------------------|
A -------------------------------------------------------------------|
E -------------------------------------------------------------------|

REPEAT
So what would you think of me now?
So lucky, so strong, so proud
I never said thank you for that
Now I'll never have a chance

CHORUS

INSTRUMENTAL
Am, F

e ----------------1----------1-3-5----1------------|
B --5--3--1-----5---5-3-1--5--------5---5-3-1-3-1--|
G ----------x2-------------------------------------|
D -------------------------------------------------|
A -------------------------------------------------|
E -------------------------------------------------|

BREAKDOWN -Not really in this version, but I have it anyway
Am
(May angels lead you in)
F
May angels lead you in
Am
(May angels lead you in)
F
May angels lead you in

(Not sure on this part. It sounds a bit strange with the song but fine normally. 
Feel free to correct it)
C                          G
And if you were with me tonight
(G)                         Am
I'd sing to you just one more time
(Am)                   F
A song for a heart so big
(F)
God couldn't let it live

CHORUS

Rose_Monster :-))-double chin!

            
            
Suggest correction
Creating personal tab
Creating personal tab
You can edit any tab online and save it as your Personal.

You can edit, replace or remove any tab part or add personal notes – all changes will be seen only by you.

Personal tabs can be accessed anytime from any device, even offline.
Learn more »
comments
print report bad tab
1 comment total.
0 reply
Veez 10 Mar 14, 2010 10:45 AM

This is very very x100 Perfect. Good job
*****5*****

guest
You may want to rate the tab now too:
select rating
Wanna post a correction for this tab? Suggest correction