Oops, an error
Loading. Please wait.

Kill tab

version 4
version 4

Whole song

Interactive

7,590 views 6 this week
no commentswrite comment
1 2 3 4 5
x 4
add to favorites
×
Save as Personal and add changes to this tab that will be seen only by you. Learn more ›
×
You can save this tab as Personal to edit and correct it or add notes. All changes will be seen only by you. Learn more »
launch autoscroll
font size
0
reset
how to read this tab
guitar tuner
edit
Autoscroll
slow
fast
+/-
esc
set tempo
stop
Kill
By Jimmy Eat World

Lead Guitar
Rhytm Guitar

My own acoustic version of the song i tabbed out myself

Ok so the part is the lead section of the song and the next is the rhythm. Drop D tuning 
capo on 1st fret.
E---
B---
G---
D---
A---
D---

Lead: Intro\Verse
-------------------------------------------------------------------]
-------------------------------------------------------------------]
-2-------2-------2---------2--------2--------2---------------------]
-0-------0-------0---------0--------0--------0---------------------]
-0-------0-------0---------0--------0--------0---------------------]
----44------44------4----------00-------00-------0-----------------]

Then

Rhythm: Riff 1 (verse)
-------------------------------------------------------------------]
-------------------------------------------------------------------]
-------------------------------------------------------------------] X3
---44444444-00000000-----------------------------------------------]
---44444444-00000000-----------------------------------------------]
---44444444-00000000-----------------------------------------------]

Riff 2(verse, rhythm and lead)
-------------------------------------------------------------------]
-------------------------------------------------------------------]
---22222222--------------------------------------------------------]
---22222222-22222222-----------------------------------------------] X1
---00000000-22222222-----------------------------------------------]
------------22222222-----------------------------------------------]

Riff 1 (2nd time)
-------------------------------------------------------------------]
-------------------------------------------------------------------]
-------------------------------------------------------------------] X3
---44444444-00000000-----------------------------------------------]
---44444444-00000000-----------------------------------------------]
---44444444-00000000-----------------------------------------------]

Riff 2 (2nd time, lead and rhythm)
------------------00-----------------------------------------------]
------------------00-----------------------------------------------]
---22222222-------11-----------------------------------------------] X1
---22222222-22222-22-----------------------------------------------]
---00000000-22222-22-----------------------------------------------]
-------------------------------------------------------------------]

Chorus

Lead:
--00000000-------------00000000--00000000--------------------------]
--00000000-------------22222222--00000000--------------------------]
--22222222--77777777---22222222--11111111--------------------------] X4
--00000000--00000000---22222222--22222222--------------------------]
--44444444--00000000---00000000--22222222--------------------------]
--44444444--00000000-----------------------------------------------]


Rhythm:
------------------------------------------------------------------]
------------------------------------------------------------------]
---------------------22222222-------------------------------------] X3
---44444444-00000000-22222222-22222222----------------------------]
---44444444-00000000-00000000-22222222----------------------------]
---44444444-00000000----------22222222----------------------------]

(rhythm and lead)
------------------------------------------------------------------]
------------------------------------------------------------------]
---------------------22222222-------------------------------------] X1
---44444444-00000000-22222222-22222222-4~-------------------------]
---44444444-00000000-00000000-22222222-4~-------------------------]
---44444444-00000000----------22222222-4~-------------------------]


Intro/Verse


Chorus


Bridge: (lead, rhythm is silent for 3 measures)
---0--0----0--0----0--0----0--0-----------------------------------]
--0--0--0-0--0--0-0--0--0-0--0--0--0--0----0--0----0--0-----0--0--]
-2--2--2-2--2--2-1--1--1-1--1--1--2--2--2-2--2--2-2--2--2--2--2--0] X4
---------------------------------4--4--4-0--0--0-2--2--2--2--2--2-]
------------------------------------------------------------------]
------------------------------------------------------------------]

Then

Bridge (rhythm)
------------------0000000000000000---------------------------------00]
-2222222222222222-0000000000000000---------------------------------00]
-2222222222222222-1111111111111111-22222222-77777777-2222222222222-11] X1
------------------2222222222222222-00000000-00000000-2222222222222-22]
------------------2222222222222222-44444444-00000000-0000000000000-22]
-----------------------------------44444444-00000000-----------------]

Chorus


Fade-out: Lead
-------------------------------------------------------------------]
-------------------------------------------------------------------]
-2-------2-------2---------2--------2--------2---------------------] X2
-0-------0-------0---------0--------0--------0---------------------]
-0-------0-------0---------0--------0--------0---------------------]
----44------44------4----------00-------00-------0-----------------]

            
            
Suggest correction
Creating personal tab
Creating personal tab
You can edit any tab online and save it as your Personal.

You can edit, replace or remove any tab part or add personal notes – all changes will be seen only by you.

Personal tabs can be accessed anytime from any device, even offline.
Learn more »
comments
print report bad tab
guest
You may want to rate the tab now too:
select rating
Wanna post a correction for this tab? Suggest correction