Oops, an error
Loading. Please wait.

My Best Theory tab

version 2
version 2

Whole song

Interactive

13,093 views 6 this week
1 commentread comment
1 2 3 4 5
x 6
add to favorites
×
Save as Personal and add changes to this tab that will be seen only by you. Learn more ›
×
You can save this tab as Personal to edit and correct it or add notes. All changes will be seen only by you. Learn more »
launch autoscroll
font size
0
reset
how to read this tab
guitar tuner
backing track
0:00
0:00
edit
Autoscroll
slow
fast
+/-
esc
set tempo
stop
Standard Tuning

Intro
Lead
Part A
e-------------------------------------|
b-------------------------------------|
g-------------------------------------|
d-9-9-------------9-9-----------------|
a-----7-7----7--------7-7-------7-7-7-|
e---------10---10---------10-10-------|

Part B (this is also the chorus lead)
e----------------------------------------------------------------------------|
b----------------------------------------------------------------------------|
g----------------------------------------------------------------------------|
d-9-9-------------9-9------------------7-7-------------7-7-7-----------------|
a-----7-7----7--------7-7-------7-7--------7-7----7----------7-7-------7-7-7-|
e---------10---10---------10-10-----10---------10---10-----------10-10-------|

e-----------------|
b-----------------|
g-----------------|
d-9-9-------------|
a-----7-7----7----|
e---------10---10-|

Rhythm
e------------------------------------|
b------------------------------------|
g------------------------------------|
d-22222222-55555555-7777777777777777-|
a-22222222-55555555-7777777777777777-|
e-00000000-33333333-5555555555555555-|

Verse
Rhythm
e------------------------------------|
b------------------------------------|
g------------------------------------|
d-22222222-55555555-7777777777777777-|
a-22222222-55555555-7777777777777777-|
e-00000000-33333333-5555555555555555-|

Lead
e--------------------------------------------------------------|
b-8888888888888888-77777777----------8888888888888888-77777777-|
g---------------------------99999999---------------------------|
d--------------------------------------------------------------|
a--------------------------------------------------------------|
e--------------------------------------------------------------|

Chorus
Lead plays Part B intro
Rhythm plays the intro/verse

Bridge
e---------------------------------------------------------------------|
b---------------------------------------------------------------------|
g-----------------------------------5555555555555555-4444444444444444-|
d-2222222222222222-5555555555555555-5555555555555555-4444444444444444-|
a-2222222222222222-5555555555555555-3333333333333333-2222222222222222-|
e-0000000000000000-3333333333333333-----------------------------------|

e----------------------------------------------------------------------|
b----------------------------------------------------------------------|
g-----------------------------------5555555555555555-44444444/88888888-|
d-2222222222222222-5555555555555555-5555555555555555-44444444/88888888-|
a-2222222222222222-5555555555555555-3333333333333333-22222222/66666666-|
e-0000000000000000-3333333333333333------------------------------------|

Solo
Rhythm
e----------------------------------------------------------------------|
b----------------------------------------------------------------------|
g----------------------------------------------------44444444/88888888-|
d-2222222222222222-5555555555555555-2222222222222222-44444444/88888888-|
a-2222222222222222-5555555555555555-2222222222222222-22222222/66666666-|
e-0000000000000000-3333333333333333-0000000000000000-------------------|

Lead
e-------------------------------------------------------|
b-------------------------------- t --------------------|
g-------------------------- 3x -- h -----------88888888-|
d-9br-9br----------------7------- e --99999999----------|
a---------10-9----7-9-10--------- n --------------------|
e--------------10---------------------------------------|

            
            
Suggest correction
Creating personal tab
Creating personal tab
You can edit any tab online and save it as your Personal.

You can edit, replace or remove any tab part or add personal notes – all changes will be seen only by you.

Personal tabs can be accessed anytime from any device, even offline.
Learn more »
comments
print report bad tab
1 comment total.
0 reply
enonx1 30 Jan 30, 2011 05:29 AM

nice tab! pretty much spot on. great song. if i may make a correction, in the solo lead, on the a string, it goes 10 9, then down to 10 on the e, back up to 7 9 10 on the a. so squeeze a 10 on the e in between the 9 and 7.

guest
You may want to rate the tab now too:
select rating
Wanna post a correction for this tab? Suggest correction