Oops, an error
Loading. Please wait.

Pass The Baby bass

556 views 9 this week
3 commentsread comments
1 2 3 4 5
1 last vote to show rating
add to favorites
×
Save as Personal and add changes to this tab that will be seen only by you. Learn more ›
×
You can save this tab as Personal to edit and correct it or add notes. All changes will be seen only by you. Learn more »
launch autoscroll
font size
0
reset
guitar tuner
edit
Autoscroll
slow
fast
+/-
esc
set tempo
stop
About this tab version
It's fair to say this song includes one of the best riffs on the album. Rick usually plays with a pick, but you could of course. pluck away with your fingers instead. Was this info helpful? Yes No
[Intro]

F#|-7-7-7-7-7-7-7-7-|-5-5-5-5-5-5-5-5-|-----------------|-----------------|
C#|-----------------|-----------------|-3-3-3-3-3-3-3-3-|-5-5-5-5-5-5-5-5-|
G#|-----------------|-----------------|-----------------|-----------------|
C#|-----------------|-----------------|-----------------|-----------------|


[Verse/Chorus]


F#|-7-7-7-7-7-7-7-7-|-5-5-5-5-5-5-5-5-|-----------------|-----------------|
C#|-----------------|-----------------|-3-3-3-3-3-3-3-3-|-5-5-5-5-5-5-5-5-|
G#|-----------------|-----------------|-----------------|-----------------|
C#|-----------------|-----------------|-----------------|-----------------|

The riff repeats with some slight variation:

F#|-7-7-7-7-7-7-7-7-|-5-5-5-5-5-5-5-5-|-------------3-5-|-5-5-5-5-5-5-5-5-|
C#|-----------------|-----------------|-5-5-5-5-5-5-----|-----------------|
G#|-----------------|-----------------|-----------------|-----------------|
C#|-----------------|-----------------|-----------------|-----------------|


[Interlude]

Here you just repeat the above riff an octave lower. At 3:15 the guitar plays this in 16th notes, and to add
to the build up, you can do the same, too.

F#|-----------------|-----------------|-----------------|-----------------|
C#|-----------------|-----------------|-----------------|-----------------|
G#|-5-5-5-5-5-5-5-5-|-3-3-3-3-3-3-3-3-|-----------------|-----------------|
C#|-----------------|-----------------|-3-3-3-3-3-3-3-3-|-5-5-5-5-5-5-5-5-|

F#|-----------------|-----------------|-----------------|-----------------|
C#|-----------------|-----------------|-----------------|-----------------|
G#|-5-5-5-5-5-5-5-5-|-3-3-3-3-3-3-3-3-|-------------1-3-|-3-3-3-3-3-3-3-3-|
C#|-----------------|-----------------|-5-5-5-5-5-5-----|-----------------|

[Outro]

This tasty riff has a couple of variations, so I tried to map out how these are played. Any suggestions are 
appreciated!!

Variation #1
F#|-------------------------------------------------------------|
C#|-------------------------------------------------------------|
G#|-5-------3---3-5---------2-----3---3-5--5--------------------|
C#|---0-3-5---5-----5-3-2~----3-0---0--------3-0--0-------------|

F#|-------------------------------------------------------------|
C#|-------------------------------------------------------------|
G#|-5-------3---3-5---------2-----3---3-5--5~-5~-5--------------|
C#|---0-3-5---5-----5-3-2~----3-0---0--------------3-0--0-------|

Variation #2
F#|-------------------------------------------------------------|
C#|-------------------------------------------------------------|
G#|-5-------3---3-5----------------2-----3---3-5--5-------------|
C#|---0-3-5---5-----5-3-2~-2~-2~-2---3-0---0--------3-0--0--0---|

F#|-------------------------------------------------------------|
C#|-------------------------------------------------------------|
G#|-5-------3---3-5----------2-----3---3-5--5~-5~-5-------------|
C#|---0-3-5---5-----5-3-2--2---3-0---0--------------3-0--0------|

Variation #3
F#|-------------------------------------------------------------|
C#|-------------------------------------------------------------|
G#|-5-------3---3-5---------2-----3---3-5--5~-5~-5--------------|
C#|---0-3-5---5-----5-3-2~----3-0---0--------------3-0--0--0--0-|

F#|-------------------------------------------------------------|
C#|-------------------------------------------------------------|
G#|-5-------3---3-5-------2-----3---3-5--5~-5~-5----------------|
C#|---0-3-5---5-----5-3-2---3-0---0--------------3-0--0---------|

F#|-------------------------------------------------------------|
C#|-------------------------------------------------------------|
G#|-5-------3---3-5-------2-----3---3-5--5----------------------|
C#|---0-3-5---5-----5-3-2---3-0---0--------3-0--0--0--0---------|

Enjoy!!

************************************
| ~   Vibrato
************************************

            
            
Suggest correction
Creating personal tab
Creating personal tab
You can edit any tab online and save it as your Personal.

You can edit, replace or remove any tab part or add personal notes – all changes will be seen only by you.

Personal tabs can be accessed anytime from any device, even offline.
Learn more »
Give kudos to tab author, rate the tab!
1 2 3 4 5
comments
print report bad tab
3 comments total.
+1 reply
incubosity 1,595 Dec 27, 2016 06:57 PM

Nice job on that last riff!! 5 stars!

+1 reply
wissettol 10 Nov 22, 2017 03:30 PM

Hey man! Awesome tab! I was wondering if you would be able to Tab the guitar part too?

0 reply
poterpls 237 Nov 22, 2017 04:23 PM

I'll give it a shot!

guest
You may want to rate the tab now too:
select rating
Wanna post a correction for this tab? Suggest correction