Oops, an error
Loading. Please wait.
We have an official Sweetness tab made by UG professional guitarists. Check out the tab »
×
70,788 views 135 this week
2 commentsread comments
1 2 3 4 5
x 16
add to favorites
×
Save as Personal and add changes to this tab that will be seen only by you. Learn more ›
×
You can save this tab as Personal to edit and correct it or add notes. All changes will be seen only by you. Learn more »
launch autoscroll
font size
0
reset
how to read this tab
guitar tuner
backing track
0:00
0:00
edit
Autoscroll
slow
fast
+/-
esc
set tempo
stop
Jimmy Eat World - Sweetness

Tuning = Dropped D, DADGBe

[Verse]

Guitar 1:
e|-------------------------|
B|-5--5--5--5-5---5--5-5-5-|
G|-x--x--x--x-x---x--x-x-x-|
D|-2--2--2--2-2---2--2-2-2-|
A|-------------------------|
D|-------------------------|x2 
A bit swingy rythm, but not swing eights
Guitar 2:
Distortion
   Dsus2
e|-------------------------|
B|-------------------------|
G|-------------------------|
D|-2--2--2--2-2---2--2-2-2-|
A|-0--0--0--0-0---0--0-0-0-|
D|-0--0--0--0-0---0--0-0-0-| x2
Dist. guitar kicks in every time after a vocal line.

Guitar 1: During the vocals
   Fsus2
e|-3--3--3--3-3---3--3-3-3-|
B|-6--6--6--6-6---6--6-6-6-|
G|-5--5--5--5-5---5--5-5-5-|
D|-3--3--3--3-3---3--3-3-3-|
A|-------------------------|
D|-------------------------|

[Chorus]
  Bb5
e|-------------------------|
B|-------------------------|
G|-------------------------|
D|-8--8--8--8-8---8--8-8-8-|
A|-8--8--8--8-8---8--8-8-8-|
D|-8--8--8--8-8---8--8-8-8-|
  C5
e|----------------------------------|
B|----------------------------------|
G|----------------------------------|
D|-10--10--10--10-10---10--10-10-10-|
A|-10--10--10--10-10---10--10-10-10-|
D|-10--10--10--10-10---10--10-10-10-|

Dsus2/Dm
e|--------------|
B|--------------|
G|--------------|
D|--------2b----|
A|-0-0--0-------|
D|-0-0--0-------|
Dsus2/Dm
e|--------------|
B|--------------|
G|--------------|
D|--------2b----|
A|-0-0--0-------|
D|-0-0--0-------|

  Bb5
e|-------------------------|
B|-------------------------|
G|-------------------------|
D|-8--8--8--8-8---8--8-8-8-|
A|-8--8--8--8-8---8--8-8-8-|
D|-8--8--8--8-8---8--8-8-8-|
  C5
e|----------------------------------|
B|----------------------------------|
G|----------------------------------|
D|-10--10--10--10-10---10--10-10-10-|
A|-10--10--10--10-10---10--10-10-10-|
D|-10--10--10--10-10---10--10-10-10-|

  F5
e|-------------------------|
B|-------------------------|
G|-------------------------|
D|-3--3--3--3-3---3--3-3-3-|
A|-3--3--3--3-3---3--3-3-3-|
D|-3--3--3--3-3---3--3-3-3-|

  F5
e|-------------------------|
B|-------------------------|
G|-------------------------|
D|-3--3--3--3-3---3--3-3-3-|
A|-3--3--3--3-3---3--3-3-3-|
D|-3--3--3--3-3---3--3-3-3-|

[Verse]

Guitar 1:
e|-------------------------|
B|-5--5--5--5-5---5--5-5-5-|
G|-x--x--x--x-x---x--x-x-x-|
D|-2--2--2--2-2---2--2-2-2-|
A|-------------------------|
D|-------------------------|x2 
A bit swingy rythm, but not swing eights
Guitar 2:
Distortion
   Dsus2
e|-------------------------|
B|-------------------------|
G|-------------------------|
D|-2--2--2--2-2---2--2-2-2-|
A|-0--0--0--0-0---0--0-0-0-|
D|-0--0--0--0-0---0--0-0-0-| x2
Dist. guitar kicks in every time after a vocal line.

Guitar 1: During the vocals
   Fsus2
e|-3--3--3--3-3---3--3-3-3-|
B|-6--6--6--6-6---6--6-6-6-|
G|-5--5--5--5-5---5--5-5-5-|
D|-3--3--3--3-3---3--3-3-3-|
A|-------------------------|
D|-------------------------|

[Chorus]
  Bb5
e|-------------------------|
B|-------------------------|
G|-------------------------|
D|-8--8--8--8-8---8--8-8-8-|
A|-8--8--8--8-8---8--8-8-8-|
D|-8--8--8--8-8---8--8-8-8-|
  C5
e|----------------------------------|
B|----------------------------------|
G|----------------------------------|
D|-10--10--10--10-10---10--10-10-10-|
A|-10--10--10--10-10---10--10-10-10-|
D|-10--10--10--10-10---10--10-10-10-|

Dsus2/Dm
e|--------------|
B|--------------|
G|--------------|
D|--------2b----|
A|-0-0--0-------|
D|-0-0--0-------|
Dsus2/Dm
e|--------------|
B|--------------|
G|--------------|
D|--------2b----|
A|-0-0--0-------|
D|-0-0--0-------|

  Bb5
e|-------------------------|
B|-------------------------|
G|-------------------------|
D|-8--8--8--8-8---8--8-8-8-|
A|-8--8--8--8-8---8--8-8-8-|
D|-8--8--8--8-8---8--8-8-8-|
  C5
e|----------------------------------|
B|----------------------------------|
G|----------------------------------|
D|-10--10--10--10-10---10--10-10-10-|
A|-10--10--10--10-10---10--10-10-10-|
D|-10--10--10--10-10---10--10-10-10-|

  F5
e|-------------------------|
B|-------------------------|
G|-------------------------|
D|-3--3--3--3-3---3--3-3-3-|
A|-3--3--3--3-3---3--3-3-3-|
D|-3--3--3--3-3---3--3-3-3-|

  F5
e|-------------------------|
B|-------------------------|
G|-------------------------|
D|-3--3--3--3-3---3--3-3-3-|
A|-3--3--3--3-3---3--3-3-3-|
D|-3--3--3--3-3---3--3-3-3-|

[Break/Bridge]
  G5
e|-------------------------|
B|-------------------------|
G|-------------------------|
D|-5--5--5--5-5---5--5-5-5-|
A|-5--5--5--5-5---5--5-5-5-|
D|-5--5--5--5-5---5--5-5-5-|
  Bb5
e|-------------------------|
B|-------------------------|
G|-------------------------|
D|-8--8--8--8-8---8--8-8-8-|
A|-8--8--8--8-8---8--8-8-8-|
D|-8--8--8--8-8---8--8-8-8-|

  F5
e|-------------------------|
B|-------------------------|
G|-------------------------|
D|-3--3--3--3-3---3--3-3-3-|
A|-3--3--3--3-3---3--3-3-3-|
D|-3--3--3--3-3---3--3-3-3-|

  F5
e|-------------------------|
B|-------------------------|
G|-------------------------|
D|-3--3--3--3-3---3--3-3-3-|
A|-3--3--3--3-3---3--3-3-3-|
D|-3--3--3--3-3---3--3-3-3-|

[Piano thing]
Staccatto
e|-13-13-13-13-13-13-13-13-13-|
B|-13-13-13-13-13-13-13-13-13-|
G|----------------------------|
D|----------------------------|
A|----------------------------|
D|----------------------------|

Then with phaser
e|-3--3--3--3-3---3--3-3-3-|
B|-6--6--6--6-6---6--6-6-6-|
G|-5--5--5--5-5---5--5-5-5-|
D|-3--3--3--3-3---3--3-3-3-|
A|-------------------------|
D|-------------------------| x4

[Chorus] different now:
  F5
e|-------------------------|
B|-------------------------|
G|-------------------------|
D|-3--3--3--3-3---3--3-3-3-|
A|-3--3--3--3-3---3--3-3-3-|
D|-3--3--3--3-3---3--3-3-3-|
  F5              G5
e|-------------------------|
B|-------------------------|
G|-------------------------|
D|-3--3--3--3-3---5--5-5-5-|
A|-3--3--3--3-3---5--5-5-5-|
D|-3--3--3--3-3---5--5-5-5-|

  D5
e|-------------------------|
B|-------------------------|
G|-------------------------|
D|-0--0--0--0-0---0--0-0-0-|
A|-0--0--0--0-0---0--0-0-0-|
D|-0--0--0--0-0---0--0-0-0-|

  D5
e|-------------------------|
B|-------------------------|
G|-------------------------|
D|-0--0--0--0-0---0--0-0-0-|
A|-0--0--0--0-0---0--0-0-0-|
D|-0--0--0--0-0---0--0-0-0-| x4

[Chorus] x4
Piano staccatto riff comes in after two times

End with
  F5              
e|-------------------------|
B|-------------------------|
G|-------------------------|
D|-3-----------------------|
A|-3-----------------------|
D|-3-----------------------|

Comments or critics? Send me a message



************************************

| x  Dead note
| b  Bend

************************************

            
            
Suggest correction
Creating personal tab
Creating personal tab
You can edit any tab online and save it as your Personal.

You can edit, replace or remove any tab part or add personal notes – all changes will be seen only by you.

Personal tabs can be accessed anytime from any device, even offline.
Learn more »
comments
print report bad tab
2 comments total.
+1 reply
welby 253 Oct 26, 2008 02:19 PM

Great Tab Man.

0 reply
paul.mich.jordan 10 Dec 22, 2015 06:12 AM

That funky xx2x50 chord to start is the same as the much easier to reach E octave chord x7x9x0

guest
You may want to rate the tab now too:
select rating
Wanna post a correction for this tab? Suggest correction