Oops, an error
Loading. Please wait.
We have an official The Middle tab made by UG professional guitarists. Check out the tab »
×
113,023 views 177 this week
16 commentsread comments
1 2 3 4 5
x 61
add to favorites
×
Save as Personal and add changes to this tab that will be seen only by you. Learn more ›
×
You can save this tab as Personal to edit and correct it or add notes. All changes will be seen only by you. Learn more »
launch autoscroll
font size
0
reset
guitar tuner
backing track
0:00
0:00
edit
Autoscroll
slow
fast
+/-
esc
set tempo
stop
[Intro]
Play intro lightly until the slide.

G|-----------------|-----------------|-----------------|-----------------|
D|-----------------|-----------------|-----------------|-----------------|
A|-----------------|-----------------|-----------------|-----------------|
D|-0-0-0-0-0-0-0-0-|-0-0-0-0-0-0-0-0-|-7-7-7-7-7-7-7-7-|-7-7-7-7-7-7-7-7-|

G|-----------------|-----------------|-----------------|-----------------|
D|-----------------|-----------------|-----------------|-----------------|
A|-----------------|-----------------|-----------------|-----------------|
D|-5-5-5-5-5-5-5-5-|-5-5-5-5-5-5-5-5-|-0-0-0-0-0-0-0-0-|-0-0-0-0-0-0-0-7\|

[Verse]

G|-----------------|-----------------|-----------------|-----------------|
D|-----------------|-----------------|-----------------|-----------------|
A|-----------------|-----------------|-----------------|-----------------|
D|-0-0-0-0-0-0-0-0-|-0-0-0-0-0-0-0-0-|-7-7-7-7-7-7-7-7-|-7-7-7-7-7-7-7-7-|

G|-----------------|-----------------|-----------------|-----------------|
D|-----------------|-----------------|-----------------|-----------------|
A|-----------------|-----------------|-----------------|-----------------|
D|-5-5-5-5-5-5-5-5-|-5-5-5-5-5-5-5-5-|-0-0-0-0-0-0-0-0-|-0-0-0-0-0-0-0-0-|

G|-----------------|-----------------|-----------------|-----------------|
D|-----------------|-----------------|-----------------|-----------------|
A|-----------------|-----------------|-----------------|-----------------|
D|-0-0-0-0-0-0-0-0-|-0-0-0-0-0-0-0-0-|-7-7-7-7-7-7-7-7-|-7-7-7-7-7-7-7-7-|

G|-----------------|-----------------|-----------------|------------------|
D|-----------------|-----------------|-----------------|------------------|
A|-----------------|-----------------|-----------------|------------------|
D|-5-5-5-5-5-5-5-5-|-5-5-5-5-5-5-5-5-|-0-0-0-0-0-0-0-0-|-0-0-0-0-0-0-12-\-|

[Chorus]

G|-----------------|-----------------|-----------------|-----------------|
D|-----------------|-----------------|-----------------|-----------------|
A|-------------5-+-|-----------------|-----------------|-----------------|
D|-r-0-+-0-+-0-----|-0-0-0-0-0-0-0-0-|-7-7-7-+-7-+-7-7-|-+-7-7-+-7-7-7-+-|

G|-----------------|-----------------|-----------------|-----------------|
D|-----------------|-----------------|-----------------|-----------------|
A|-----------------|-----------------|-----5-+-----5---|-----------5-5-5-|
D|-5-5-5-+-5-+-5-5-|-5-5-5-+-5-5-5-+-|-0-0-----0-0---0-|-0-0-0-+-0-------|

[Verse]

G|-----------------|-----------------|-----------------|-----------------|
D|-----------------|-----------------|-----------------|-----------------|
A|-----------------|-----------------|-----------------|-----------------|
D|-0-0-0-0-0-0-0-0-|-0-0-0-0-0-0-0-0-|-7-7-7-7-7-7-7-7-|-7-7-7-7-7-7-7-7-|

G|-----------------|-----------------|-----------------|-----------------|
D|-----------------|-----------------|-----------------|-----------------|
A|-----------------|-----------------|-----------------|-----------------|
D|-5-5-5-5-5-5-5-5-|-5-5-5-5-5-5-5-5-|-0-0-0-0-0-0-0-0-|-0-0-0-0-0-0-0-0-|

G|-----------------|-----------------|-----------------|-----------------|
D|-----------------|-----------------|-----------------|-----------------|
A|-----------------|-----------------|-----------------|-----------------|
D|-0-0-0-0-0-0-0-0-|-0-0-0-0-0-0-0-0-|-7-7-7-7-7-7-7-7-|-7-7-7-7-7-7-7-7-|

G|-----------------|-----------------|-----------------|------------------|
D|-----------------|-----------------|-----------------|------------------|
A|-----------------|-----------------|-----------------|------------------|
D|-5-5-5-5-5-5-5-5-|-5-5-5-5-5-5-5-5-|-0-0-0-0-0-0-0-0-|-0-0-0-0-0-0-12-\-|

[Chorus]

G|-----------------|-----------------|-----------------|-----------------|
D|-----------------|-----------------|-----------------|-----------------|
A|-------------5-+-|-----------------|-----------------|-----------------|
D|-r-0-+-0-+-0-----|-0-0-0-0-0-0-0-0-|-7-7-7-+-7-+-7-7-|-+-7-7-+-7-7-7-+-|

G|-----------------|-----------------|-----------------|-----------------|
D|-----------------|-----------------|-----------------|-----------------|
A|-----------------|-----------------|-----5-+-----5---|-----------5-5-5-|
D|-5-5-5-+-5-+-5-5-|-5-5-5-+-5-5-5-+-|-0-0-----0-0---0-|-0-0-0-+-0-------|

G|-----------------|-----------------|-----------------|-----------------|
D|-----------------|-----------------|-----------------|-----------------|
A|-------------5-+-|-----------------|-----------------|-----------------|
D|-r-0-+-0-+-0-----|-0-0-0-0-0-0-0-0-|-7-7-7-+-7-+-7-7-|-+-7-7-+-7-7-7-+-|

G|-----------------|-----------------|-----------------|-----------------|
D|-----------------|-----------------|-----------------|-----------------|
A|-----------------|-----------------|-----5-+-----5---|-----------5-5-5-|
D|-5-5-5-+-5-+-5-5-|-5-5-5-+-5-5-5-+-|-0-0-----0-0---0-|-0-0-0-+-0-------|

[Bridge]

G|-----------------|-----------------|-----------------|-----------------|
D|-----------------|-----------------|-----------------|-----------------|
A|-----------------|-----------------|-----------------|-----------------|
D|-7-+-7-7-7-7-7-7-|-7-+-7-7-7-7-7-7-|-0-+-0-0-0-0-0-0-|-0-+-0-0-0-0-0-0-|

G|-----------------|-----------------|-----------------|-----------------|
D|-----------------|-----------------|-----------------|-----------------|
A|-----------------|-----------------|-----------------|-----------------|
D|-7-7-7-+-7-7-7-7-|-7-7-7-+-7-7-7-7-|-0-0-0-0-0-0-0-0-|-0-0-0-2-2-2-4-4-|

G|-----------------|-----------------|-----------------|-----------------|
D|-----------------|-----------------|-----------------|-----------------|
A|-----------------|-----------------|-----------5-5---|-5-5-5-5-5-5-5---|
D|-5-5-5-5-5-5-5-5-|-5-5-5-5-5-5-5-5-|-0-0-0-0-0-----0-|-----------------|

G|-----------------|-----------------|--------------------|---------------------|
D|-----------------|-----------------|--------------------|---------------------|
A|-----------------|-----------------|-12-+-+-12-+-+-12-+-|-+-12-+-+-12-12-12-/-|
D|-7-7-7-7-7-7-7-+-|-7-+-7-7-7-7-7-7-|--------------------|---------------------|

[Verse]

G|-----------------|-----------------|-----------------|-----------------|
D|-----------------|-----------------|-----------------|-----------------|
A|-----------------|-----------------|-----------------|-----------------|
D|-r-r-r-r-r-r-r-r-|-r-r-r-r-r-r-r-r-|-7-7-7-7-7-7-7-7-|-7-7-7-7-7-7-7-7-|

G|-----------------|-----------------|-----------------|-----------------|
D|-----------------|-----------------|-----------------|-----------------|
A|-----------------|-----------------|-----------------|-----------------|
D|-5-5-5-5-5-5-5-5-|-5-5-5-5-5-5-5-5-|-0-0-0-0-0-0-0-0-|-0-0-0-0-0-0-0-0-|

G|-----------------|-----------------|-----------------|-----------------|
D|-----------------|-----------------|-----------------|-----------------|
A|-----------------|-----------------|-----------------|-----------------|
D|-0-0-0-0-0-0-0-0-|-0-0-0-0-0-0-0-0-|-7-7-7-7-7-7-7-7-|-7-7-7-7-7-7-7-7-|

G|-----------------|-----------------|-----------------|------------------|
D|-----------------|-----------------|-----------------|------------------|
A|-----------------|-----------------|-----------------|------------------|
D|-5-5-5-5-5-5-5-5-|-5-5-5-5-5-5-5-5-|-0-0-0-0-0-0-0-0-|-0-0-0-0-0-0-12-\-|

[Chorus]

G|-----------------|-----------------|-----------------|-----------------|
D|-----------------|-----------------|-----------------|-----------------|
A|-------------5-+-|-----------------|-----------------|-----------------|
D|-r-0-+-0-+-0-----|-0-0-0-0-0-0-0-0-|-7-7-7-+-7-+-7-7-|-+-7-7-+-7-7-7-+-|

G|-----------------|-----------------|-----------------|-----------------|
D|-----------------|-----------------|-----------------|-----------------|
A|-----------------|-----------------|-----5-+-----5---|-----------5-5-5-|
D|-5-5-5-+-5-+-5-5-|-5-5-5-+-5-5-5-+-|-0-0-----0-0---0-|-0-0-0-+-0-------|

G|-----------------|-----------------|-----------------|-----------------|
D|-----------------|-----------------|-----------------|-----------------|
A|-----------------|-----------------|-----------------|-----------------|
D|-r-0-+-0-+-0-0-+-|-0-0-0-0-0-0-0-0-|-r-7-+-7-+-7-7-+-|-7-7-7-7-7-7-7-7-|

G|-----------------|-----------------|-----------------|
D|-----------------|-----------------|-----------------|
A|-----------------|-----------------|-----------5-----|
D|-r-r-5-+-5-+-5-5-|-5-5-5-+-5-5-5-5-|-0-+-0-+-0---0-0-|

************************************

|\  slide down
|+  hold note
|r  rest

            
            
Suggest correction
Creating personal tab
Creating personal tab
You can edit any tab online and save it as your Personal.

You can edit, replace or remove any tab part or add personal notes – all changes will be seen only by you.

Personal tabs can be accessed anytime from any device, even offline.
Learn more »
comments
print report bad tab
16 comments total. Showing first comments.
+4 reply
mentaldonkey182 50 Nov 10, 2007 12:42 AM

best bass tab on here for this song

+5 reply
boycew02 253 Oct 15, 2008 04:22 AM

lol aaargh, i was just going over my old tabs and i noticed that i ****ed the solo bit pretty bad. where i've marked the 10th fret of the D string i meant the 10th fret of the A string. that'll teach me to get all arsy about the other tabbers messing up. =P

+1 reply
livinginmisery 80 Dec 11, 2008 04:51 AM

just out of curiousity, how can people mess up such an easy bass tab? Great job, sounds perfect.

guest
You may want to rate the tab now too:
select rating
Wanna post a correction for this tab? Suggest correction