Oops, an error
Loading. Please wait.
We have an official The Middle tab made by UG professional guitarists. Check out the tab »
×
23,366 views 9 this week
4 commentsread comments
1 2 3 4 5
x 23
add to favorites
guitar tuner
Autoscroll
slow
fast
+/-
esc
set tempo
stop
"The Middle"
demo version
Play now

or get full version for Free

×
Get full version now!
Learn and play this song
in Tab Pro
Try for free

or get $10 off Welcome Bonus

Get welcome bonus
Get access to Tab Pro version of “The Middle”!
Tab Pro is a premium guitar tab service, available on PC, Mac, iOS and Android
TRY FOR FREE
To download “The Middle” Power tab click button below
Please note that you must have Power Tab software installed on your
computer in order to view this file.
Suggest correction
comments
report bad tab
4 comments total. Showing first comments.
-2 reply
moolinex89 84 Jun 15, 2006 08:57 AM

Good But the verse is made up of chords not notes

Eg.

-----------------|-----------------|
-----------------|-----------------|
-----------------|-----------------|
-----------------|-----------------|
-----------------|-----------------|
-0-0-0-0-0-0-0-0-|-7-7-7-7-7-7-7-7-|

Should be
-----------------|-----------------|
-----------------|-----------------|
-----------------|-----------------|
-2---------------|-5---------------|
-2-2-2-2-2-2-2-2-|-5-5-5-5-5-5-5-5-|
-0-0-0-0-0-0-0-0-|-7-7-7-7-7-7-7-7-|

0 reply
guitar7 103 Mar 17, 2007 11:11 PM

exellent... but in the chorus listen carefully to where you have gone wrong. the 2nd guitar is not playing standard D, it is playing this...
-0-0-0-0-0-0-0-|
-3-3-3-3-3-3-3-|
-2-2-2-2-2-2-2-|
-0-0-0-0-0-0-0-|
---------------|
---------------| instead of standard D.

0 reply
bakerbordr25 10 May 20, 2007 10:57 AM

that chord is Dadd9th. the songs in the key of D in case anyone wanted to know. it appears the author forgot to put that in. otherwise its a pretty good tab. god bless

guest