Oops, an error
Loading. Please wait.

Surrender bass

by JJ72
171 views 3 this week
no commentswrite comment
1 2 3 4 5
3 more votes to show rating
add to favorites
×
Save as Personal and add changes to this tab that will be seen only by you. Learn more ›
×
You can save this tab as Personal to edit and correct it or add notes. All changes will be seen only by you. Learn more »
launch autoscroll
font size
0
reset
guitar tuner
edit
Autoscroll
slow
fast
+/-
esc
set tempo
stop
Author
Difficulty
Intro/Verse
G|-----------------------|
D|-----------------------|
A|-----------------------|
E|--0--1--1-1--3--1--1-1-|

my stupid short
hall swimming flight
engulfed with my
magic light
days of years
years of days

G|--------------------------|
D|--------------------------|
A|-----3--3-3-2----5-5-5-3--|
E|--5-----------3-----------|

to go...

and everythings upside down
and down around we go
but still my thoughts are surrendered

G|-----------------|
D|-----------------|
A|-----3--3-3-2----|
E|--5-----------3--|

surrendered

Pre Chorus
G|-------------------------------------------------------------------|
D|-------------------------------------------------------------------|
A|----------------------------------1-1-1-1-1-1-1-1-3-3-3-3-3-3-3-3--|
E|--3-3-3-3-3-3-3-3-5-5-5-5-5-5-5-5----------------------------------|

Chorus
G|--------------------------------------|
D|--------------------------------------|
A|--4--4-4--5--5-5-5--7--7-7--5--5-5-5--|
E|--------------------------------------|

bang and light
that's all they do
beings like gods
there are too few
holding on to the last dance

G|--------------------------------------|
D|--------------------------------------|
A|----------3--3-3-3----------5--5-5-5--|
E|--5--5-5------------3--3-3------------|

tonight...

and everythings upside down
and down around we go
but still my thoughts are

G|-----------------------------------------|
D|-----------------------------------------|
A|----------3--3-3-3----------5--5-5-5--5--|
E|--5--5-5------------3--3-3---------------|

surrendered....

pale face in a beach scent
piers of nothing remain cement
days of school
learning how
to smile

and everythings upside down
and down around we go
but still my thoughts are surrendered

bang and light
that's all they do
beings like gods
there are too few
holding on to the last dance tonight

and everythings upside down
and down around we go
but still my thoughts are surrendered


That`s it. Have fun. :)

Taz Mckell

            
            
Suggest correction
Creating personal tab
Creating personal tab
You can edit any tab online and save it as your Personal.

You can edit, replace or remove any tab part or add personal notes – all changes will be seen only by you.

Personal tabs can be accessed anytime from any device, even offline.
Learn more »
Give kudos to tab author, rate the tab!
1 2 3 4 5
comments
print report bad tab
guest
You may want to rate the tab now too:
select rating
Wanna post a correction for this tab? Suggest correction