Oops, an error
Loading. Please wait.

Goldener Reiter bass

574 views 9 this week
no commentswrite comment
1 2 3 4 5
3 more votes to show rating
add to favorites
×
Save as Personal and add changes to this tab that will be seen only by you. Learn more ›
×
You can save this tab as Personal to edit and correct it or add notes. All changes will be seen only by you. Learn more »
launch autoscroll
font size
0
reset
guitar tuner
edit
Autoscroll
slow
fast
+/-
esc
set tempo
stop
Author
Difficulty
-------------------------------------------------------------------------------
                     Joachim Witt - Goldener Reiter
-------------------------------------------------------------------------------
Tabbed by: Rae the Git

Tuning: Standard

Verse:
G|----------------------------------------------------------------------------------------------|
D|--------------------------------5-5-5-5-5-5-5-5-----------------------------------------------|
A|7-7-7-7-7-7-7-7-7-7-7-7-7-7-7-7-----------------5-5-5-5-5-5-5-5-5-5-5-5-5-5-5-5-5-5-5-5-4-5-6-|
E|----------------------------------------------------------------------------------------------|
          An der Umgehungsstraße,          kurz vor den Mauern unserer Stadt 

G|----------------------------------------------------------------------------------------------|
D|--------------------------------5-5-5-5-5-5-5-5-----------------------------------------------|
A|7-7-7-7-7-7-7-7-7-7-7-7-7-7-7-7-----------------5-5-5-5-5-5-5-5-5-5-5-5-5-5-5-5-5-5-5-5-4-5-6-|
E|----------------------------------------------------------------------------------------------|
          steht eine Nervenklinik,        wie sie noch keiner gesehen hat

G|----------------------------------------------------------------------------------------------|
D|--------------------------------5-5-5-5-5-5-5-5-----------------------------------------------|
A|7-7-7-7-7-7-7-7-7-7-7-7-7-7-7-7-----------------5-5-5-5-5-5-5-5-5-5-5-5-5-5-5-5-5-5-5-5-4-5-6-|
E|----------------------------------------------------------------------------------------------|
          sie hat das Fassungsvermögen    sämtlicher Einkaufszentren der Stadt 

G|----------------------------------------------------------------------------------------------|
D|--------------------------------5-5-5-5-5-5-5-5-----------------------------------------------|
A|7-7-7-7-7-7-7-7-7-7-7-7-7-7-7-7-----------------5-5-5-5-5-5-5-5-5-5-5-5-5-5-5-5-5-5-5-5-4-5-6-|
E|----------------------------------------------------------------------------------------------|
          geh'n dir die Nerven durch      wirst du noch verrückter gemacht


Chorus:
G|----------------------------------------------------------------|
D|----------------------------------------------------------------|
A|7-7-7-7-7-7-7-7-7-7-7-7-7-7-7-7-5-5-5-5-5-5-5-5-5-5-5-5-5-4-5-6-|
E|----------------------------------------------------------------|
  Hey hey hey, ich war der goldene Reiter

G|----------------------------------------------------------------|
D|----------------------------------------------------------------|
A|7-7-7-7-7-7-7-7-7-7-7-7-7-7-7-7-5-5-5-5-5-5-5-5-5-5-5-5-5-4-5-6-|
E|----------------------------------------------------------------|
  hey hey hey, ich bin ein Kind dieser Stadt

G|----------------------------------------------------------------|
D|----------------------------------------------------------------|
A|7-7-7-7-7-7-7-7-7-7-7-7-7-7-7-7-5-5-5-5-5-5-5-5-5-5-5-5-5-5-5-5-|
E|----------------------------------------------------------------|
  hey hey hey, ich war so hoch auf der Leiter, doch dann fiel ich

G|----------------------------------------------------------------|
D|----------------------------------------------------------------|
A|7-7-7-7-7-7-7-7-7-7-7-7-7-7-7-7-5-5-5-5-5-5-5-5-5-5-5-5-5-4-5-6-|
E|----------------------------------------------------------------|
  ab,            ja dann fiel ich ab


That's all there is to this song - simple, straight forward as NDW (new German wave) was in the 80s.

            
            
Suggest correction
Creating personal tab
Creating personal tab
You can edit any tab online and save it as your Personal.

You can edit, replace or remove any tab part or add personal notes – all changes will be seen only by you.

Personal tabs can be accessed anytime from any device, even offline.
Learn more »
Give kudos to tab author, rate the tab!
1 2 3 4 5
comments
print report bad tab
guest
You may want to rate the tab now too:
select rating
Wanna post a correction for this tab? Suggest correction