Oops, an error
Loading. Please wait.

Joe Hill tab

version 1
version 1

Whole song

Interactive

1,535 views 6 this week
no commentswrite comment
1 2 3 4 5
x 5
add to favorites
×
Save as Personal and add changes to this tab that will be seen only by you. Learn more ›
×
You can save this tab as Personal to edit and correct it or add notes. All changes will be seen only by you. Learn more »
launch autoscroll
font size
0
reset
how to read this tab
guitar tuner
edit
Autoscroll
slow
fast
+/-
esc
set tempo
stop
Author
Difficulty
intermediate
Hi folks, 

I was very happy that Joan went to NYC to support OWS and in fact really 
happy that someone filmed her with a perfect angle so we can see at last 
the chords she plays. Especially, the Esus4 chord that makes it sound so 
particular. You will notice that her capo is on 4th, but she is, as usual, 
half a tone down, so put yours on 3rd. See the video at: 
http://www.youtube.com/watch?v=1MvkIwOSwSE, if it is still there at the 
time you read this). The fingerpicking pattern as she played at woodstock
is easy and I tabbed it here for you. She sometimes plays the E*** part, 
as I named it, in a simplier way, but I thought I'd show you how it goes. 
I hope you enjoy it and feel free to drop me a line at haouein@hotmail.com
for comments or just to say hi!

Cheers to all Joan fans!

Pierre S.
_________

Capo 3th 
Esus4 (022200)

[Main Riff]
     E       Esus4   E       ESUS4         E       Esus4   E       ESUS4
e||------0-------0-------0-------0----||-------0-------0-------0-------0---|
B||------0-------0-------0-------0----||-------0-------0-------0-------0---|
G||----1---1---2---2---1---1---2---2--||*----1---1---2---2---1---1---2---2-|
D||-----------------------------------||*----------------------------------|
A||----------2---------------2--------||-----------2---------------2-------|
E||--0---------------0----------------||---0---------------0---------------|
                                          I dreamed..............

    A              E       E***       A               E       Esus4
e|-----0-------0-------0-----------|-----0-------0-------0-----0-----|
B|-----2-------2-------0---2-0-----|-----2-------2-------0-----------|
G|---2---2---2---2---1---1-1-1-2-1-|---2---2---2---2---1---1---2-----|
D|-----------------------------2-2-|---------------------------------|
A|-0-------0---------------2-------|-0-------0---------------2-------|
E|-----------------0-----------0---|-----------------0-----------0-1-|
  Alive ...                         Say "Hi!"....

   F#              B7                B7              E       Esus4
e|-----2-------2-------2-------2---|-----2-------2-------0-------0---|
B|-----2-------2-------0-------0---|-----0-------0-------0-------0---|
G|---3---3---3---3---2---2---2---2-|---2---2---2---2---1---1---2---2-|
D|---------------------------------|---------------------------------|
A|-----------------2-------2-------|-2-------2---------------2-------|
E|-2-------2-----------------------|-----------------0---------------|
 "I never died", said he,          "I never died", said he.

    E       Esus4   E       E***       [ENDING]                  (slow down)
e|------0-------0-------0------------||------0-------0-------0-----------------||
B|------0-------0-------0---2-0------||------0-------0-------0---2-0-----------||
G|----1---1---2---2---1---1-1-1-2-1-*||----1---1---2---2---1---1-1-1-2-2_-1___-||
D|------------------------------2-2-*||------------------------------2-2_-2___-||
A|----------2---------------2--------||----------2---------------2---2---------||
E|--0---------------0-----------0----||--0---------------0----------------0___-||

E*** : Move your little finger from string two to three, 2nd fret.

            
            
Suggest correction
Creating personal tab
Creating personal tab
You can edit any tab online and save it as your Personal.

You can edit, replace or remove any tab part or add personal notes – all changes will be seen only by you.

Personal tabs can be accessed anytime from any device, even offline.
Learn more »
comments
print report bad tab
guest
You may want to rate the tab now too:
select rating
Wanna post a correction for this tab? Suggest correction