Oops, an error
Loading. Please wait.
We have an official I Love Rock N Roll tab made by UG professional guitarists. Check out the tab »
×
60,633 views 84 this week
3 commentsread comments
1 2 3 4 5
x 19
add to favorites
×
Save as Personal and add changes to this tab that will be seen only by you. Learn more ›
×
You can save this tab as Personal to edit and correct it or add notes. All changes will be seen only by you. Learn more »
launch autoscroll
font size
0
reset
how to read this tab
guitar tuner
edit
Autoscroll
slow
fast
+/-
esc
set tempo
stop
Author
Unregistered
[Solo]
e|----------------------------------------------------------------|
B|--------------------------------12------------------------(12)--|
G|----------------7---------9-11b----11r-9----9-11--------9-------|
D|----------------6-----/11----------------11------9-9h11---------|
A|----------------------------------------------------------------|
E|-0-x-x-2b-2b-0--------------------------------------------------|

e|----------------------------------------------------------------|
B|----------------------------------------------------------------|
G|-9-9-9/8-8-8/6-6-6/4-4-4/2-2-2/1--1----------2------------------|
D|------------------------------------4-2------2------------------|
A|----------------------------------------4-2--0------------------|
E|----------------------------------------------------------------|

            
            
Suggest correction
Creating personal tab
Creating personal tab
You can edit any tab online and save it as your Personal.

You can edit, replace or remove any tab part or add personal notes – all changes will be seen only by you.

Personal tabs can be accessed anytime from any device, even offline.
Learn more »
comments
print report bad tab
3 comments total.
0 reply
jsz5003 10 Apr 22, 2010 04:25 AM

great tab. The solo's in the full song tabs are good, but the second half is way better in this.

-1 reply
jere96 30 Aug 01, 2010 10:22 AM

good :) 90% correct

0 reply
samubrow 10 Oct 27, 2014 01:08 AM

Awesome! thanks, i did do some modifications of my own but this was a great tab!

guest
Wanna post a correction for this tab? Suggest correction