Oops, an error
Loading. Please wait.

Relinquished bass

version 1
version 1

Whole song

Interactive

2,956 views 3 this week
1 commentread comment
1 2 3 4 5
x 3
add to favorites
×
Save as Personal and add changes to this tab that will be seen only by you. Learn more ›
×
You can save this tab as Personal to edit and correct it or add notes. All changes will be seen only by you. Learn more »
launch autoscroll
font size
0
reset
guitar tuner
edit
Autoscroll
slow
fast
+/-
esc
set tempo
stop
okay this isnt the whole song but its most of it theres a few parts i cant quite figure 
but this is what ive got so hope you like it. id prefer to think of my tabs as guide 
follow it but play the song to how you think it is.

THE BASS COMES IN WHEN THE DRUMS DO

\/=slide up and down
>=tremelo picking
~=let ring

intro (the rhythm is easy)
f|------------------|
C|------------------|
G|------------------|     X4
C|--0000--0000-1111-|

(dont know this nit here sorry)

f|------------------|
C|------------------|
G|------------------|     X4
C|--3653-5875-------|
    >>>> >>>>

transition to next bit
f|------------------|
C|------------------|
G|------------------|
C|--\0~~~-----------|


f|------------------|
C|-------------8-7--|
G|--5-4-5-1-4-5-4---|
C|------------------|
    >>>>>>>>>>>>>>
(dont know this little bit here)

transition
f|------------------|
C|------------------|
G|---5--4--5--6--5--|
C|--0--0--0--0--0---|
     >  >  >

f|---------------------------|
C|---------------------------|
G|-----654----543---654--6--5|
C|--000----000---000----0--0-|
                         >  >

f|------------------|
C|------------------|
G|--548757--54875---|
C|------------------|
    >>>>>>  >>>>>

f|------------------|
C|------------------|
G|----548757---54875|
C|--00-------00-----|

f|------------------|
C|------------------|
G|----548757---54875|
C|--00-------00----0|


f|------------------|
C|------------------|
G|---6-5-6-5-4-3-4-3|    repeat lots
C|--0-0-0-0-0-0-0-0-|
     > > > > > > > >

f|----------------------|
C|----------------------|
G|---6-5--6------4-3--4-|  repeat a few times
C|--0-0-00------0-0-00--|
     > >  >      > >  >

theres that little drum interlude

(theres a little fill at the end of every second one and i dont no it so i just play a 
from like the 12th fret down when it happens)
f|------------------|
C|------------------|
G|---5---5-5--------|
C|--0---0-0-00-4313-|
     >   > >   >>>>
(the last time you play this to end it)
f|--------------------|
C|--------------------|
G|---5---5-5----------|
C|--0---0-0-00-44-4411|
     >   > >   >>>>

f|-------------------|
C|-------------------|
G|-------------------|
C|--11-1-111-33-3-333|   repeat a few times

then do this transition to next bit
f|-------------------------|
C|-------------------------|
G|-------------------------|
C|--3-5-7-9-10-12-14-15\4-1|

f|------------------|
C|------------------|
G|------------------|
C|--0~~-5~4~--------|

f|------------------|
C|------------------|
G|----55-55-1010-99-|  repeat this a few times
C|--00--0--0----0---|

then it comes in with that sick as quik bit
f|------------------|
C|------------------|
G|------------------|
C|--143130----------|
    >>>>>>
add these slides the second time through
f|------------------|
C|------------------|
G|------------------|
C|--1/7\-1/12\------|


f|---------------------|
C|---------------------|
G|---------------------|
C|--5555-4444-8888-7777|

f|--------------------|
C|--------------------|
G|--------------------|
C|--5-4-1-0---5-4-8-7-|
    > > > >   > > > >

f|------------------|
C|------------------|
G|------------------|
C|---0~~~-----------|

f|----------------------|
C|----------------------|
G|---5040--504050--5040-|
C|--0-----0-------0-----|
(^^^^^^theres a little fill at the end of every one and i dont no it so i just play a 
from like the 12th fret down when it happens)

this is played in the back ground
f|-----------------------|
C|-----------------------|
G|-----------------------|
C|--0~~-9~-5~---0~~-8~-5~|

please rate :)

            
            
Suggest correction
Creating personal tab
Creating personal tab
You can edit any tab online and save it as your Personal.

You can edit, replace or remove any tab part or add personal notes – all changes will be seen only by you.

Personal tabs can be accessed anytime from any device, even offline.
Learn more »
Give kudos to tab author, rate the tab!
1 2 3 4 5
comments
print report bad tab
1 comment total.
0 reply
escalade 346 Aug 22, 2007 11:22 AM

pretty good tab. heres some of the parts your missing f|------------------|
C|-------------8-7--|
G|--5-4-5-1-4-5-4---|
C|------------------|
>>>>>>>>>>>>>> after that is
C|----4444----3333----8888----7777--|
G|1111----0000----5555----4444------|-C| and the lil thing after the 5-0-4-0- is 5 on A, 7 and 8 on D, 5 on G, 5 on A, 8 on D, 4 on A, and 7 on D. sorry i didnt tab that out. it wouldnt work correctly. hopefully that helps you.

guest
You may want to rate the tab now too:
select rating
Wanna post a correction for this tab? Suggest correction