Oops, an error
Loading. Please wait.

What We Once Called Home tab

version 2
version 2

Whole song

Interactive

3,978 views 1 this week
2 commentsread comments
1 2 3 4 5
x 3
add to favorites
×
Save as Personal and add changes to this tab that will be seen only by you. Learn more ›
×
You can save this tab as Personal to edit and correct it or add notes. All changes will be seen only by you. Learn more »
launch autoscroll
font size
0
reset
how to read this tab
guitar tuner
edit
Autoscroll
slow
fast
+/-
esc
set tempo
stop
#----------------------------------PLEASE NOTE---------------------------------#
#This file is the author's own work and represents their interpretation of the #
#song. You may only use this file for private study, scholarship, or research. #
#------------------------------------------------------------------------------##

                            WHAT WE ONCE CALLED HOME
                         As recorded by Job For A Cowboy
                           (From the 2004 Album DEMO)

Words and Music by Job For A Cowboy
Transcribed by jonathan rose

Gtr I (C G C F A D) - 'Left'
Gtr II (C G C F A D) - 'Right'
Gtr III (C G C F A D) - 'Gtr III'

 Intro
  Q=122
  A5                       G5                   N.C.         A5       G5
 4/4
  Gtr I
  PMTP  TPTPTPTP TPTPTPTP  PMTP TPTPTPTP TP TPTP TP  PM TP   PMTP
  E S   S S S E  E E E E   E S  S S S E  E  E E  E   E  Q.   E Q.     W
|------------------------|-------------------------|----------------|------||
|------------------------|-------------------------|----------------|------||
|------------------------|-------------------------|----------------|------||
|------------------------|-------------------------|----------------|------||
|---8---7-8-7-7-10-8-7-8-|---8--7-8-7-7-12-10-8-10-|---10------8----|-5----||
|-7----------------------|-5-----------------------|-8-------7------|-5----||
|
| Gtr II
| PM                       PM
| E H..                    E H.                  E   H       H        W
|------------------------|-------------------------|----------------|------||
|------------------------|-------------------------|----------------|------||
|------------------------|-------------------------|----------------|------||
|------------------------|-------------------------|----------------|------||
|-7----------------------|-5--------------------/6-|---------7------|-5----||
|-7----------------------|-5-----------------------|-8-------7------|-5----||


    N.C.
    Gtrs I, II
    PMTPTPTPTPTP TPTPTPTP  PMTPTPTPTPTP TP TPTP TP
    E S S S S E  E E E E   E S S S S E  E  E E  E
||-----------------------|------------------------|
||o----------------------|------------------------|
||-----------------------|------------------------|
||-----------------------|------------------------|
||o---8-7-8-7-7-10-8-7-8-|---8-7-8-7-7-12-10-8-10-|
||--7--------------------|-5----------------------|


  PM TP   PMTP     PMTPTPTPTPTPTPTPTP
  E  Q.   E Q.     E S S S S E E E Q
|----------------|-----------------------||
|----------------|----------------------o||
|----------------|-----------------------||
|----------------|-----------------------||
|---10------8----|---8-7-8-7-5-7-5-4----o||
|-8-------7------|-5---------------------||


  Q=110
  D5                            N.C.
  Gtr I
  PM--------------------------|
  T T S S T T S S T T S S S S S S S S S
|---------------------------------------|
|---------------------------------------|
|---------------------------------------|
|---------------------------------------|
|-0-0-0---0-0-0---0-0-0---0---0-7h8-5h7-|
|-0-0-0---0-0-0---0-0-0---0---0---------|
|
| Gtr II
| W
|---------------------------------------|
|---------------------------------------|
|---------------------------------------|
|---------------------------------------|
|---------------------------------------|
|---------------------------------------|


  D5                            N.C.
  PM--------------------------|
  T T S S T T S S T T S S S S S S S S S
|---------------------------------------|
|---------------------------------------|
|---------------------------------------|
|---------------------------------------|
|-0-0-0---0-0-0---0-0-0---0---0-7h8-5h7-|
|-0-0-0---0-0-0---0-0-0---0---0---------|
|
| W
|---------------------------------------|
|---------------------------------------|
|---------------------------------------|
|-0-------------------------------------|
|-0-------------------------------------|
|-0-------------------------------------|


  D5                            N.C.
  PM--------------------------|
  T T S S T T S S T T S S S S S  S        S  S S
|------------------------------------------------|
|------------------------------------------------|
|------------------------------------------------|
|------------------------------------------------|
|-0-0-0---0-0-0---0-0-0---0---0--7h=======8--5h7-|
|-0-0-0---0-0-0---0-0-0---0---0------------------|
|
| PM
| E     H                   E    S       +E.
|-------------------------------18------(18)-----|
|-------------------------------21b22.5-(21)-----|
|------------------------------------------------|
|------------------------------------------------|
|-0----------------------------------------------|
|-0----------------------------------------------|


  D5                               N.C.
  PM---------------------------|
  T  T S S T T S S T T S S T T S S   Q
|-----------------------------------------|
|-----------------------------------------|
|-----------------------------------------|
|----------------------------------[12]---|
|-0--0-0---0-0-0---0-0-0---0-0-0----------|
|-0--0-0---0-0-0---0-0-0---0-0-0----------|
|
| H.                                 Q
|-----------------------------------------|
|-----------------------------------------|
|-----------------------------------------|
|-0---------------------------------------|
|-0---------------------------------[5]---|
|-0---------------------------------------|


  Q=120
  D5                              N.C.
  PM----------------------------|
  T T S S T T S S T T S S S   S S  S  S S  S
|--------------------------------------------|
|--------------------------------------------|
|--------------------------------------------|
|--------------------------------------------|
|-0-0-0---0-0-0---0-0-0---0-----0--7h=8-5h=7-|
|-0-0-0---0-0-0---0-0-0---0-----0------------|
|
| PM----------------------------|
| T T S S T T S S T T S S T T S S  S  S S  S
|--------------------------------------------|
|--------------------------------------------|
|--------------------------------------------|
|--------------------------------------------|
|-0-0-0---0-0-0---0-0-0---0-0-0---10h12-8h10-|
|-0-0-0---0-0-0---0-0-0---0-0-0--------------|


  D5                              N.C.
  PM----------------------------|
  T T S S T T S S T T S S S   S S  S  S S  S
|--------------------------------------------|
|--------------------------------------------|
|--------------------------------------------|
|--------------------------------------------|
|-0-0-0---0-0-0---0-0-0---0-----0--7h=8-5h=7-|
|-0-0-0---0-0-0---0-0-0---0-----0------------|
|
| PM----------------------------|
| T T S S T T S S T T S S T T S S  S  S S  S
|--------------------------------------------|
|--------------------------------------------|
|--------------------------------------------|
|--------------------------------------------|
|-0-0-0---0-0-0---0-0-0---0-0-0---10h12-8h10-|
|-0-0-0---0-0-0---0-0-0---0-0-0--------------|


  D5                              N.C.
  PM----------------------------|
  T T S S T T S S T T S S S   S S  S  S S  S
|--------------------------------------------|
|--------------------------------------------|
|--------------------------------------------|
|--------------------------------------------|
|-0-0-0---0-0-0---0-0-0---0-----0--7h=8-5h=7-|
|-0-0-0---0-0-0---0-0-0---0-----0------------|
|
| PM----------------------------|
| T T S S T T S S T T S S T T S S  S  S S  S
|--------------------------------------------|
|--------------------------------------------|
|--------------------------------------------|
|--------------------------------------------|
|-0-0-0---0-0-0---0-0-0---0-0-0---10h12-8h10-|
|-0-0-0---0-0-0---0-0-0---0-0-0--------------|


  D5                              N.C.
  PM--------------------------|
  T T S S T T S S T T S S T T S S  Q
|--------------------------------------|
|--------------------------------------|
|--------------------------------------|
|--------------------------------------|
|-0-0-0---0-0-0---0-0-0---0-0-0---[5]--|
|-0-0-0---0-0-0---0-0-0---0-0-0--------|
|
| PM--------------------------|
| T T S S T T S S T T S S T T S S  Q
|--------------------------------------|
|--------------------------------------|
|--------------------------------------|
|--------------------------------------|
|-0-0-0---0-0-0---0-0-0---0-0-0---[5]--|
|-0-0-0---0-0-0---0-0-0---0-0-0--------|


  D5                              N.C.
  PM----------------------------|
  T T S S T T S S T T S S S   S S  S  S S  S
|--------------------------------------------|
|--------------------------------------------|
|--------------------------------------------|
|--------------------------------------------|
|-0-0-0---0-0-0---0-0-0---0-----0--7h=8-5h=7-|
|-0-0-0---0-0-0---0-0-0---0-----0------------|
|
| PM----------------------------|
| T T S S T T S S T T S S T T S S  S  S S  S
|--------------------------------------------|
|--------------------------------------------|
|--------------------------------------------|
|--------------------------------------------|
|-0-0-0---0-0-0---0-0-0---0-0-0---10h12-8h10-|
|-0-0-0---0-0-0---0-0-0---0-0-0--------------|


  D5                              N.C.
  PM----------------------------|
  T T S S T T S S T T S S S   S S  S  S S  S
|--------------------------------------------|
|--------------------------------------------|
|--------------------------------------------|
|--------------------------------------------|
|-0-0-0---0-0-0---0-0-0---0-----0--7h=8-5h=7-|
|-0-0-0---0-0-0---0-0-0---0-----0------------|
|
| PM----------------------------|
| T T S S T T S S T T S S T T S S  S  S S  S
|--------------------------------------------|
|--------------------------------------------|
|--------------------------------------------|
|--------------------------------------------|
|-0-0-0---0-0-0---0-0-0---0-0-0---10h12-8h10-|
|-0-0-0---0-0-0---0-0-0---0-0-0--------------|


  D5                              N.C.
  PM----------------------------|
                                               |--3--|  |-3--|
  T T S S T T S S T T S S S   S S  S  S S  S   Q  Q  Q  Q Q  Q
|--------------------------------------------|-----------------||
|--------------------------------------------|-----------------||
|--------------------------------------------|-----------------||
|--------------------------------------------|-----------------||
|-0-0-0---0-0-0---0-0-0---0-----0--7h=8-5h=7-|-8-10-12-10-8-10-||
|-0-0-0---0-0-0---0-0-0---0-----0------------|-----------------||
|
| PM----------------------------|
|                                              |--3--|  |-3--|
| T T S S T T S S T T S S T T S S  S  S S  S   Q  Q  Q  Q Q  Q
|--------------------------------------------|-----------------||
|--------------------------------------------|-----------------||
|--------------------------------------------|-----------------||
|--------------------------------------------|-----------------||
|-0-0-0---0-0-0---0-0-0---0-0-0---10h12-8h10-|-5--7--8--7-5--7-||
|-0-0-0---0-0-0---0-0-0---0-0-0--------------|-----------------||


   Chorus
    N.C.
   3/4
    Gtr I
    TP TP TPTPTP  TP TPTP   TP TP TPTPTP  TP TPTP
    E  S  S S S   E  E E    E  S  S S S   E  E E
||-----------------------|-----------------------|
||o----------------------|-----------------------|
||-----------------------|-----------------------|
||-----------------------|-----------------------|
||o-5--5--8-7-5-/10--8-7-|--5--5--8-7-5-/10--8-7-|
||-----------------------|-----------------------|
|
|   Gtr II
|   TP TP TPTPTP  TP TPTP   TP TP TPTPTP  TP TPTP
|   E  S  S S S   E  E E    E  S  S S S   E  E E
||-----------------------|-----------------------|
||o----------------------|-----------------------|
||--7--7-10-9-7-/12-10-9-|--7--7-10-9-7-/12-10-9-|
||-----------------------|-----------------------|
||o----------------------|-----------------------|
||-----------------------|-----------------------|
|
|   Gtr III
|   H.                      H.
||-----------------------|-----------------------|
||o----------------------|-----------------------|
||-----------------------|-----------------------|
||-----------------------|-----------------------|
||o----------------------|-----------------------|
||--8--------------------|-10--------------------|


  TP TPTPTPTPTP  PM---------|
  E  E E E E E   E  E E E E E
|--------------|---------------||
|--------------|--------------o||
|--------------|---------------||
|--------------|---------------||
|-4--5-7-4-5-7-|-8--7-5-4-5-7-o||
|--------------|---------------||
|
| TP TPTPTPTPTP  PM---------|
| E  E E E E E   E  E E E E E
|--------------|---------------||
|--------------|--------------o||
|-6--7-9-6-7-9-|---------------||
|--------------|---------------||
|--------------|-8--7-5-4-5-7-o||
|--------------|---------------||
|
| H.             H.
|--------------|---------------||
|--------------|--------------o||
|--------------|---------------||
|--------------|---------------||
|--------------|--------------o||
|-5------------|---------------||


  N.C.
  Gtr I
                                                        PM--------|
  E S S S S   E E E   E S S S S   E E E   E E E E E E   E E E E E E
|-------------------|-------------------|-------------|-------------|
|-------------------|-------------------|-------------|-------------|
|-------------------|-------------------|-------------|-------------|
|-------------------|-------------------|-------------|-------------|
|-5-5-8-7-5-/10-8-7-|-5-5-8-7-5-/10-8-7-|-4-5-7-4-5-7-|-8-7-5-4-5-7-|
|-------------------|-------------------|-------------|-------------|
|
| Gtr II
|                                                       PM--------|
| E S S S S   E E E   E S S S S   E E E   E E E E E E   E E E E E E
|-------------------|-------------------|-------------|-------------|
|-------------------|-------------------|-------------|-------------|
|-------------------|-------------------|-------------|-------------|
|-------------------|-------------------|-------------|-------------|
|-5-5-8-7-5-/10-8-7-|-5-5-8-7-5-/10-8-7-|-4-5-7-4-5-7-|-8-7-5-4-5-7-|
|-------------------|-------------------|-------------|-------------|


  N.C.
  E S  S S  S   E  E     E       E  S  S  S  S   E E   E
|-----------------------------|----------------------------|
|-----------------------------|----------------------------|
|-----------------------------|----------------------------|
|-----------------------------|----------------------------|
|-5-5--8-7--5-/10--8-----7----|--5--5--8--7--5-/10-8---7---|
|-----------------------------|----------------------------|
|
|                                                ~~~
| E S  S S  S   E  S  S  S  S    E  S  S  S  S   Q    +E
|-----------------------------|----------------------------|
|-----------------------------|----------------------------|
|-----------------------------|----------------------------|
|-----------------------------|----------------------------|
|-8-8h10-8h10--12-10h12-10h12-|-13-12h13-12h13--15---(15)\-|
|-----------------------------|----------------------------|


                   PM---------|
  E E  E E E  E    E  E E E E  E
|---------------|----------------||
|---------------|----------------||
|---------------|----------------||
|---------------|----------------||
|-4-5--7-4-5--7-|--8--7-5-4-5--7-||
|---------------|----------------||
|
|                  PM---------|
| E E  E E E  E    E  E E E E  E
|---------------|----------------||
|---------------|----------------||
|---------------|----------------||
|---------------|----------------||
|-7-8-10-7-8-10-|-12-10-8-7-8-10-||
|---------------|----------------||


   B r e a k d o w n!
    Q=80
    D5
   4/4
    Gtrs I, II
    PM--|   PM--|   PM--|   PM--------------|   PM--|   PM--|   PM------|
                                |-3-|                               |-3-|
    T T S E T T S E T T S S T T E E E   T T S E T T S E T T S S T T E E E   3x
||------------------------------------|-------------------------------------||
||o-----------------------------------|------------------------------------o||
||------------------------------------|-------------------------------------||
||------------------------------------|-------------------------------------||
||o-0-0-0---0-0-0---0-0-0---0-0-0-0-0-|-0-0-0---0-0-0---0-0-0---0-0-0-0-0--o||
||--0-0-0---0-0-0---0-0-0---0-0-0-0-0-|-0-0-0---0-0-0---0-0-0---0-0-0-0-0---||


  D5                                                  N.C.
  Gtr I
  PM--|   PM--|   PM--|   PM--------------|   PM--|   PM--------|
                              |-3-|                   |-3-| |-3-|
  T T S E T T S E T T S S T T E E E   T T S E T T S E E E E E E E
|-----------------------------------|------------------------------||
|-----------------------------------|------------------------------||
|-----------------------------------|------------------------------||
|-----------------------------------|------------------------------||
|-0-0-0---0-0-0---0-0-0---0-0-0-0-0-|-0-0-0---0-0-0----------------||
|-0-0-0---0-0-0---0-0-0---0-0-0-0-0-|-0-0-0---0-0-0---5-4-1-0-1-4--||
|
| Gtr II
| PM--|   PM--|   PM--|   PM--------------|   PM--|   PM--------|
|                             |-3-|                   |-3-| |-3-|
| T T S E T T S E T T S S T T E E E   T T S E T T S E E E E E E E
|-----------------------------------|------------------------------||
|-----------------------------------|------------------------------||
|-----------------------------------|------------------------------||
|-----------------------------------|------------------------------||
|-0-0-0---0-0-0---0-0-0---0-0-0-0-0-|-0-0-0---0-0-0----------------||
|-0-0-0---0-0-0---0-0-0---0-0-0-0-0-|-0-0-0---0-0-0---8-7-5-4-5-7--||


    Q=122
    D5    N.C.  D5    N.C.    D5    N.C.    D5
    Gtr I
    PM--| TPTPTPPM--| TPTPTP  PM--|  TP TPTPPM--|  TP TP TP
    T T S E E E T T S E E E   T T S  E  E E T T S  E  E  E
||--------------------------|------------------------------|
||o-------------------------|------------------------------|
||--------------------------|------------------------------|
||--------------------------|------------------------------|
||o-0-0-0-5-7-8-0-0-0-5-7-8-|-0-0-0-12-10-8-0-0-0-13-12-10-|
||--0-0-0-------0-0-0-------|-0-0-0---------0-0-0----------|
|
|   Gtr II
|   PM    TPTPTPPM    TPTPTP  PM     TP TPTPPM     TP TP TP
|   E     E E E E     E E E   E      E  E E E      E  E  E
||--------------------------|------------------------------|
||o-------------------------|------------------------------|
||--------------------------|------------------------------|
||--------------------------|------------------------------|
||o-0-----5-7-8-0-----5-7-8-|-0-----12-10-8-0-----13-12-10-|
||--0-----------0-----------|-0-------------0--------------|


  D5    N.C.  D5    N.C.
  PM--| TPTPTPPM--| TPTPTP   TP   TPTPTP
  T T S E E E T T S E E E    H    E E Q
|-------------------------|-----------------||
|-------------------------|----------------o||
|-------------------------|-----------------||
|-------------------------|-----------------||
|-0-0-0-5-7-8-0-0-0-5-7-8-|-10------8-7----o||
|-0-0-0-------0-0-0-------|-------5---------||
|
| PM    TPTPTPPM    TPTPTP   TP   TPTPTP
| E     E E E E     E E E    H    E E Q
|-------------------------|-----------------||
|-------------------------|----------------o||
|-------------------------|-----------------||
|-------------------------|-----------------||
|-0-----5-7-8-0-----5-7-8-|-10------8-7----o||
|-0-----------0-----------|-------5---------||


 Bass Part
                                H=H
  D5
                               2/4
  Gtrs I, II
  PM--------|
  S S E S S E H      W          H
|------------------|----------|------|
|------------------|----------|------|
|------------------|----------|------|
|------------------|----------|------|
|-0-0---0-0--------|----------|------|
|-0-0---0-0--------|----------|------|


    Q=180
    F#D5 EbF5EbD5
   4/4
                    PM--------------------|
    E Q  E E E Q    S S E S S E S S E S S E
||----------------|-------------------------|
||o---------------|-------------------------|
||----------------|-------------------------|
||----------------|-------------------------|
||o-4p0--1-3-1-0--|-0-0-0-0-0-0-0-0-0-0-0-0-|
||--4p0--1-3-1-0--|-0-0-0-0-0-0-0-0-0-0-0-0-|


  F#D5 EbF5EbD5
                  PM--------------------|
  E Q  E E E Q    S S E S S E S S E S S E
|---------------|---------------------------||
|---------------|--------------------------o||
|---------------|---------------------------||
|---------------|---------------------------||
|-4p0--1-3-1-0--|-0-0-0-0-0-0-0-0-0-0-0-0--o||
|-4p0--1-3-1-0--|-0-0-0-0-0-0-0-0-0-0-0-0---||


  F#D5 EbF5EbD5
  Gtr I
                  PM-----------------------
  E Q  E E E Q    S S E S S E S S E S S E
|---------------|-------------------------|
|---------------|-------------------------|
|---------------|-------------------------|
|---------------|-------------------------|
|-4p0--1-3-1-0--|-0-0-0-0-0-0-0-0-0-0-0-0-|
|-4p0--1-3-1-0--|-0-0-0-0-0-0-0-0-0-0-0-0-|
|
| Gtr II
|                 TP
| E Q  E E E Q    W
|---------------|-------------------------|
|---------------|-------------------------|
|---------------|-------------------------|
|---------------|-6-----------------------|
|-4p0--1-3-1-0--|-------------------------|
|-4p0--1-3-1-0--|-------------------------|


 --------------------------------------------------|
  S S E S S E S S E S S E   S  S E S S E S S E S S E
|-------------------------|--------------------------|
|-------------------------|--------------------------|
|-------------------------|--------------------------|
|-------------------------|--------------------------|
|-0-0-0-0-0-0-0-0-0-0-0-0-|-0--0-0-0-0-0-0-0-0-0-0-0-|
|-0-0-0-0-0-0-0-0-0-0-0-0-|-0--0-0-0-0-0-0-0-0-0-0-0-|
|
| TP                        TP                 TP
| W                         H.                 Q
|-------------------------|--------------------------|
|-------------------------|--------------------------|
|-------------------------|--------------------------|
|-0-----------------------|-6------------------8-----|
|-------------------------|--------------------------|
|-------------------------|--------------------------|


  D5
  PM-------------------------------------------------
  S S E S S E S S E S S E   S S E S S E S S E S S E
|-------------------------|-------------------------|
|-------------------------|-------------------------|
|-------------------------|-------------------------|
|-------------------------|-------------------------|
|-0-0-0-0-0-0-0-0-0-0-0-0-|-0-0-0-0-0-0-0-0-0-0-0-0-|
|-0-0-0-0-0-0-0-0-0-0-0-0-|-0-0-0-0-0-0-0-0-0-0-0-0-|
|
| TP                        TP
| W                         W
|-------------------------|-------------------------|
|-------------------------|-------------------------|
|-------------------------|-------------------------|
|-0-----------------------|-6-----------------------|
|-------------------------|-------------------------|
|-------------------------|-------------------------|


 --------------------------------------------------|
  S S E S S E S S E S S E   S  S E S S E S S E S S E
|-------------------------|-----------------------------|
|-------------------------|-----------------------------|
|-------------------------|-----------------------------|
|-------------------------|-----------------------------|
|-0-0-0-0-0-0-0-0-0-0-0-0-|-0--0-0-0-0-0-0-0-0-0-0-0----|
|-0-0-0-0-0-0-0-0-0-0-0-0-|-0--0-0-0-0-0-0-0-0-0-0-0----|
|
| TP                        TP                 TP
| W                         H.                 Q
|-------------------------|-----------------------------|
|-------------------------|-----------------------------|
|-------------------------|-----------------------------|
|-0-----------------------|-6------------------8--------|
|-------------------------|-----------------------------|
|-------------------------|-----------------------------|


                            H.=H
  D5                        F#5   FEbF5
  PM---------------------------------|
  S S E S S E S S E S S E   Q  Q  Q  Q
|-------------------------|-------------||
|-------------------------|-------------||
|-------------------------|-------------||
|-------------------------|-------------||
|-0-0-0-0-0-0-0-0-0-0-0-0-|-4--3--1--3--||
|-0-0-0-0-0-0-0-0-0-0-0-0-|-4--3--1--3--||
|
| TP                        PM-------|
| W                         Q  Q  Q  Q
|-------------------------|-------------||
|-------------------------|-------------||
|-------------------------|-------------||
|-0-----------------------|-------------||
|-------------------------|-4--3--1--3--||
|-------------------------|-4--3--1--3--||


   B r e a k d o w n!
    Q=145
    D5                              F#D5  Eb5
   4/4
    Gtrs I, II
    PM----|    PM----|      PM----|     PM
    S S S S Q  S S S S Q    S S S S E E E Q.
||------------------------|--------------------|
||o-----------------------|--------------------|
||------------------------|--------------------|
||------------------------|--------------------|
||o-0-0-0-0----0-0-0-0----|-0-0-0-0-4-0---1----|
||--0-0-0-0----0-0-0-0----|-0-0-0-0-4-0-0-1----|


  D5                              F#D5  Eb5
  PM----|    PM----|      PM----|     PM
  S S S S Q  S S S S Q    S S S S E E E Q.     3x
|-----------------------|----------------------||
|-----------------------|---------------------o||
|-----------------------|----------------------||
|-----------------------|----------------------||
|-0-0-0-0----0-0-0-0----|-0-0-0-0-4-0---1-----o||
|-0-0-0-0----0-0-0-0----|-0-0-0-0-4-0-0-1------||


  D5                              F#D5  Eb5
  Gtr I
  PM----|    PM----|      PM----|     PM
  S S S S Q  S S S S Q    S S S S E E E Q.
|-----------------------|--------------------|
|-----------------------|--------------------|
|-----------------------|--------------------|
|-----------------------|--------------------|
|-0-0-0-0----0-0-0-0----|-0-0-0-0-4-0---1----|
|-0-0-0-0----0-0-0-0----|-0-0-0-0-4-0-0-1----|
|
| Gtr II
| PM----|    PM----|      PM----|
| S S S S Q  S S S S Q    S S S S E E E Q.
|-----------------------|--------------------|
|-----------------------|--------------------|
|-----------------------|--------------------|
|-----------------------|--------------------|
|-0-0-0-0----0-0-0-0----|-0-0-0-0-4-0---1----|
|-0-0-0-0----0-0-0-0----|-0-0-0-0-4-0-0-1----|


  D5                      N.C.
  PM----|    PM----|
                          |--3--|  |-3--|
  S S S S Q  S S S S Q    Q  Q  Q  Q Q  Q
|-----------------------|------------------||
|-----------------------|------------------||
|-----------------------|------------------||
|-----------------------|------------------||
|-0-0-0-0----0-0-0-0----|-8-10-12-10-8-10--||
|-0-0-0-0----0-0-0-0----|------------------||
|
| PM----|    PM----|
|                         |--3--|  |-3--|
| S S S S Q  S S S S Q    Q  Q  Q  Q Q  Q
|-----------------------|------------------||
|-----------------------|------------------||
|-----------------------|------------------||
|-----------------------|------------------||
|-0-0-0-0----0-0-0-0----|-5--7--8--7-5--7--||
|-0-0-0-0----0-0-0-0----|------------------||


   Chorus
    Q=120
    N.C.
   3/4
    Gtr I
    TP TP TPTPTP  TP TPTP   TP TP TPTPTP  TP TPTP
    E  S  S S S   E  E E    E  S  S S S   E  E E
||-----------------------|-----------------------|
||o----------------------|-----------------------|
||-----------------------|-----------------------|
||-----------------------|-----------------------|
||o-5--5--8-7-5-/10--8-7-|--5--5--8-7-5-/10--8-7-|
||-----------------------|-----------------------|
|
|   Gtr II
|   TP TP TPTPTP  TP TPTP   TP TP TPTPTP  TP TPTP
|   E  S  S S S   E  E E    E  S  S S S   E  E E
||-----------------------|-----------------------|
||o----------------------|-----------------------|
||--7--7-10-9-7-/12-10-9-|--7--7-10-9-7-/12-10-9-|
||-----------------------|-----------------------|
||o----------------------|-----------------------|
||-----------------------|-----------------------|
|
|   Gtr III
|   H.                      H.
||-----------------------|-----------------------|
||o----------------------|-----------------------|
||-----------------------|-----------------------|
||-----------------------|-----------------------|
||o----------------------|-----------------------|
||--8--------------------|-10--------------------|


  TP TPTPTPTPTP  PM---------|
  E  E E E E E   E  E E E E E
|--------------|---------------||
|--------------|--------------o||
|--------------|---------------||
|--------------|---------------||
|-4--5-7-4-5-7-|-8--7-5-4-5-7-o||
|--------------|---------------||
|
| TP TPTPTPTPTP  PM---------|
| E  E E E E E   E  E E E E E
|--------------|---------------||
|--------------|--------------o||
|-6--7-9-6-7-9-|---------------||
|--------------|---------------||
|--------------|-8--7-5-4-5-7-o||
|--------------|---------------||
|
| H.             H.
|--------------|---------------||
|--------------|--------------o||
|--------------|---------------||
|--------------|---------------||
|--------------|--------------o||
|-5------------|---------------||


  N.C.
  Gtr I
                                                        PM--------|
  E S S S S   E E E   E S S S S   E E E   E E E E E E   E E E E E E
|-------------------|-------------------|-------------|-------------|
|-------------------|-------------------|-------------|-------------|
|-------------------|-------------------|-------------|-------------|
|-------------------|-------------------|-------------|-------------|
|-5-5-8-7-5-/10-8-7-|-5-5-8-7-5-/10-8-7-|-4-5-7-4-5-7-|-8-7-5-4-5-7-|
|-------------------|-------------------|-------------|-------------|
|
| Gtr II
|                                                       PM--------|
| E S S S S   E E E   E S S S S   E E E   E E E E E E   E E E E E E
|-------------------|-------------------|-------------|-------------|
|-------------------|-------------------|-------------|-------------|
|-------------------|-------------------|-------------|-------------|
|-------------------|-------------------|-------------|-------------|
|-5-5-8-7-5-/10-8-7-|-5-5-8-7-5-/10-8-7-|-4-5-7-4-5-7-|-8-7-5-4-5-7-|
|-------------------|-------------------|-------------|-------------|


  N.C.
  E S  S S  S   E  E     E       E  S  S  S  S   E E   E
|-----------------------------|----------------------------|
|-----------------------------|----------------------------|
|-----------------------------|----------------------------|
|-----------------------------|----------------------------|
|-5-5--8-7--5-/10--8-----7----|--5--5--8--7--5-/10-8---7---|
|-----------------------------|----------------------------|
|
|                                                ~~~
| E S  S S  S   E  S  S  S  S    E  S  S  S  S   Q    +E
|-----------------------------|----------------------------|
|-----------------------------|----------------------------|
|-----------------------------|----------------------------|
|-----------------------------|----------------------------|
|-8-8h10-8h10--12-10h12-10h12-|-13-12h13-12h13--15---(15)\-|
|-----------------------------|----------------------------|


                   PM---------|
  E E  E E E  E    E  E E E E  E
|---------------|----------------||
|---------------|----------------||
|---------------|----------------||
|---------------|----------------||
|-4-5--7-4-5--7-|--8--7-5-4-5--7-||
|---------------|----------------||
|
|                  PM---------|
| E E  E E E  E    E  E E E E  E
|---------------|----------------||
|---------------|----------------||
|---------------|----------------||
|---------------|----------------||
|-7-8-10-7-8-10-|-12-10-8-7-8-10-||
|---------------|----------------||


  D5    N.C.    D5    N.C.    D5    N.C.
 4/4
  PM--|   PM    PM--|   PM    PM--|
  T T S S S S S T T S S S S S T T S S S
|---------------------------------------|
|---------------------------------------|
|---------------------------------------|
|---------------------------------------|
|-0-0-0-5---5h8-0-0-0-5---5h7-0-0-0-5p4-|
|-0-0-0---0-----0-0-0---0-----0-0-0-----|
|
| W
|---------------------------------------|
|---------------------------------------|
|---------------------------------------|
|---------------------------------------|
|---------------------------------------|
|---------------------------------------|


  D5    N.C.     D5    N.C.     D5    N.C.
  PM--|   PM     PM--|   PM     PM--|
  T T S S S S  S T T S S S S  S T T S S S
|------------------------------------------|
|------------------------------------------|
|------------------------------------------|
|------------------------------------------|
|-0-0-0-5---5h=8-0-0-0-5---5h=7-0-0-0-5p4--|
|-0-0-0---0------0-0-0---0------0-0-0------|
|
| PM--|   PM     PM--|   PM     PM--|
| T T S S S S  S T T S S S S  S T T S S S
|------------------------------------------|
|------------------------------------------|
|------------------------------------------|
|------------------------------------------|
|-0-0-0-8---8h12-0-0-0-8---8h10-0-0-0-8p7--|
|-0-0-0---0------0-0-0---0------0-0-0------|


    D5    N.C.     D5    N.C.     D5    N.C.
    PM--|   PM     PM--|   PM     PM--|
    T T S S S S  S T T S S S S  S T T S S S
||------------------------------------------|
||o-----------------------------------------|
||------------------------------------------|
||------------------------------------------|
||o-0-0-0-5---5h=8-0-0-0-5---5h=7-0-0-0-5p4-|
||--0-0-0---0------0-0-0---0------0-0-0-----|
|
|   PM--|   PM     PM--|   PM     PM--|
|   T T S S S S  S T T S S S S  S T T S S S
||------------------------------------------|
||o-----------------------------------------|
||------------------------------------------|
||------------------------------------------|
||o-0-0-0-8---8h12-0-0-0-8---8h10-0-0-0-8p7-|
||--0-0-0---0------0-0-0---0------0-0-0-----|


  D5    N.C.     D5    N.C.     D5    N.C.
  PM--|   PM     PM--|   PM     PM--|
  T T S S S S  S T T S S S S  S T T S S S
|-------------------------------------------||
|------------------------------------------o||
|-------------------------------------------||
|-------------------------------------------||
|-0-0-0-5---5h=8-0-0-0-5---5h=7-0-0-0-5p4--o||
|-0-0-0---0------0-0-0---0------0-0-0-------||
|
| PM--|   PM     PM--|   PM     PM--|
| T T S S S S  S T T S S S S  S T T S S S
|-------------------------------------------||
|------------------------------------------o||
|-------------------------------------------||
|-------------------------------------------||
|-0-0-0-8---8h12-0-0-0-8---8h10-0-0-0-8p7--o||
|-0-0-0---0------0-0-0---0------0-0-0-------||


  D5                  N.C.        D5                  N.C.
  PM----------------|             PM----------------|
  T T S E E T T S E E S  S S  S   T T S E E T T S E E S  S S  S
|-------------------------------|-------------------------------|
|-------------------------------|-------------------------------|
|-------------------------------|-------------------------------|
|-------------------------------|-------------------------------|
|-0-0-0-0-0-0-0-0-0-0-5h=8-4h=7-|-0-0-0-0-0-0-0-0-0-0-5h=8-4h=7-|
|-0-0-0-0-0-0-0-0-0-0-----------|-0-0-0-0-0-0-0-0-0-0-----------|
|
| PM----------------|             PM----------------|
| T T S E E T T S E E S  S S  S   T T S E E T T S E E S  S S  S
|-------------------------------|-------------------------------|
|-------------------------------|-------------------------------|
|-------------------------------|-------------------------------|
|-------------------------------|-------------------------------|
|-0-0-0-0-0-0-0-0-0-0-8h12-7h10-|-0-0-0-0-0-0-0-0-0-0-8h12-7h10-|
|-0-0-0-0-0-0-0-0-0-0-----------|-0-0-0-0-0-0-0-0-0-0-----------|


  D5                  N.C.        D5                  N.C.
  PM----------------|             PM----------------|
  T T S E E T T S E E S  S S  S   T T S E E T T S E E  Q
|-------------------------------|----------------------------||
|-------------------------------|----------------------------||
|-------------------------------|----------------------------||
|-------------------------------|----------------------------||
|-0-0-0-0-0-0-0-0-0-0-5h=8-4h=7-|-0-0-0-0-0-0-0-0-0-0-[5]----||
|-0-0-0-0-0-0-0-0-0-0-----------|-0-0-0-0-0-0-0-0-0-0--------||
|
| PM----------------|             PM----------------|
| T T S E E T T S E E S  S S  S   T T S E E T T S E E  Q
|-------------------------------|----------------------------||
|-------------------------------|----------------------------||
|-------------------------------|----------------------------||
|-------------------------------|----------------------------||
|-0-0-0-0-0-0-0-0-0-0-8h12-7h10-|-0-0-0-0-0-0-0-0-0-0-[5]----||
|-0-0-0-0-0-0-0-0-0-0-----------|-0-0-0-0-0-0-0-0-0-0--------||


 B r e a k d o w n!
  Q=110
  D5
  PM--------------------|     PM--------------------|
  T T S E E T T S E E S S E   T T S E E T T S E E S S E
|---------------------------|---------------------------|
|---------------------------|---------------------------|
|---------------------------|---------------------------|
|---------------------------|---------------------------|
|-0-0-0-0-0-0-0-0-0-0-0-0---|-0-0-0-0-0-0-0-0-0-0-0-0---|
|-0-0-0-0-0-0-0-0-0-0-0-0---|-0-0-0-0-0-0-0-0-0-0-0-0---|
|
| PM--------------------|     PM--------------------|
| T T S E E T T S E E S S E   T T S E E T T S E E S S E
|---------------------------|---------------------------|
|---------------------------|---------------------------|
|---------------------------|---------------------------|
|---------------------------|---------------------------|
|-0-0-0-0-0-0-0-0-0-0-0-0---|-0-0-0-0-0-0-0-0-0-0-0-0---|
|-0-0-0-0-0-0-0-0-0-0-0-0---|-0-0-0-0-0-0-0-0-0-0-0-0---|


                                                  N.C.
  PM--------------------|     PM----------------|
  T T S E E T T S E E S S E   T T S E E T T S E E  Q
|---------------------------|--------------------------|
|---------------------------|--------------------------|
|---------------------------|--------------------------|
|---------------------------|--------------------------|
|-0-0-0-0-0-0-0-0-0-0-0-0---|-0-0-0-0-0-0-0-0-0-0-[8]--|
|-0-0-0-0-0-0-0-0-0-0-0-0---|-0-0-0-0-0-0-0-0-0-0------|
|
| PM--------------------|     PM----------------|
| T T S E E T T S E E S S E   T T S E E T T S E E  Q
|---------------------------|--------------------------|
|---------------------------|--------------------------|
|---------------------------|--------------------------|
|---------------------------|--------------------------|
|-0-0-0-0-0-0-0-0-0-0-0-0---|-0-0-0-0-0-0-0-0-0-0-[5]--|
|-0-0-0-0-0-0-0-0-0-0-0-0---|-0-0-0-0-0-0-0-0-0-0------|


  D5
  Gtrs I, II
  PM--------------------|     PM--------------------|
  T T S E E T T S E E S S E   T T S E E T T S E E S S E
|---------------------------|---------------------------|
|---------------------------|---------------------------|
|---------------------------|---------------------------|
|---------------------------|---------------------------|
|-0-0-0-0-0-0-0-0-0-0-0-0---|-0-0-0-0-0-0-0-0-0-0-0-0---|
|-0-0-0-0-0-0-0-0-0-0-0-0---|-0-0-0-0-0-0-0-0-0-0-0-0---|


                                                         Wierd Sample
                                                         5/4
  PM--------------------|     PM--------------------|
  T T S E E T T S E E S S E   T T S E E T T S E E S S E   W        Q
|---------------------------|---------------------------|---------------|
|---------------------------|---------------------------|---------------|
|---------------------------|---------------------------|---------------|
|---------------------------|---------------------------|---------------|
|-0-0-0-0-0-0-0-0-0-0-0-0---|-0-0-0-0-0-0-0-0-0-0-0-0---|---------------|
|-0-0-0-0-0-0-0-0-0-0-0-0---|-0-0-0-0-0-0-0-0-0-0-0-0---|---------------|


   Outro
    Q=80
    D5
   4/4
    PM--|   PM--|   PM--|   PM--------------|   PM--|   PM--|   PM------|
                                |-3-|                               |-3-|
    T T S E T T S E T T S S T T E E E   T T S E T T S E T T S S T T E E E
||------------------------------------|-------------------------------------||
||o-----------------------------------|------------------------------------o||
||------------------------------------|-------------------------------------||
||------------------------------------|-------------------------------------||
||o-0-0-0---0-0-0---0-0-0---0-0-0-0-0-|-0-0-0---0-0-0---0-0-0---0-0-0-0-0--o||
||--0-0-0---0-0-0---0-0-0---0-0-0-0-0-|-0-0-0---0-0-0---0-0-0---0-0-0-0-0---||


Duration Legend
---------------
W - whole; H - half; Q - quarter; E - 8th; S - 16th; T - 32nd; X - 64th; a - acciaccatura
+ - note tied to previous; . - note dotted; .. - note double dotted
Uncapitalized letters represent notes that are staccato (1/2 duration)
Irregular groupings are notated above the duration line
Duration letters will always appear directly above the note/fret number it represents the
duration for.  Duration letters with no fret number below them represent rests.  Multi-
bar rests are notated in the form Wxn, where n is the number of bars to rest for.  Low
melody durations appear below the staff

Tablature Legend
----------------
 h   - hammer-on
 p   - pull-off
 b   - bend
 pb  - pre-bend
 r   - bend release (if no number after the r, then release immediately)
 /\  - slide into or out of (from/to "nowhere")
 s   - legato slide
 S   - shift slide
  - natural harmonic
[n]  - artificial harmonic
n(n) - tapped harmonic
 ~   - vibrato
 tr  - trill
 T   - tap
 TP  - trem. picking
 PM  - palm muting
\n/  - tremolo bar dip; n = amount to dip
 \n  - tremolo bar down
 n/  - tremolo bar up
/n\  - tremolo bar inverted dip
 =   - hold bend; also acts as connecting device for hammers/pulls
 <>  - volume swell (louder/softer)
 x   - on rhythm slash represents muted slash
 o   - on rhythm slash represents single note slash

Misc Legend
-----------
 |  - bar
||  - double bar
||o - repeat start
o|| - repeat end
*|  - double bar (ending)
 :  - bar (freetime)
 $  - Segno
 &  - Coda
Tempo markers -  = BPM(8/16=s8/s16), where s8 = swing 8ths, s16 = swing 16ths


***************************************************************************************
* Generated using Power Tab Editor by Brad Larsen - http://powertab.guitarnetwork.org *
***************************************************************************************

            
            
Suggest correction
Creating personal tab
Creating personal tab
You can edit any tab online and save it as your Personal.

You can edit, replace or remove any tab part or add personal notes – all changes will be seen only by you.

Personal tabs can be accessed anytime from any device, even offline.
Learn more »
Give kudos to tab author, rate the tab!
1 2 3 4 5
comments
print report bad tab
2 comments total.
0 reply
deaththrashcore 436 May 21, 2007 05:09 PM

Some of this is right but some of the most obvious parts of the song are off! Come on, man!

0 reply
jonathanonfire 4,750 May 22, 2007 10:15 PM

Listen to the powertab of this that I have up. Its pretty spot on. Its an easy song.

guest
You may want to rate the tab now too:
select rating
Wanna post a correction for this tab? Suggest correction