Oops, an error
Loading. Please wait.

Dirt In My Pocket tab

version 2
version 2

Whole song

142 views 3 this week
no commentswrite comment
1 2 3 4 5
1 last vote to show rating
add to favorites
×
Save as Personal and add changes to this tab that will be seen only by you. Learn more ›
×
You can save this tab as Personal to edit and correct it or add notes. All changes will be seen only by you. Learn more »
launch autoscroll
font size
0
reset
how to read this tab
guitar tuner
edit
Autoscroll
slow
fast
+/-
esc
set tempo
stop
Dirt in my Pocket
Open E tuning (E-B-E-G#-B-E)



[Intro]

e |----------------0--|------------------0--|-------------------------------------|
B |----------------0--|------------------0--|-------------------------------------|
G#|-------------------|---------------------|-------------------------------------| X 2
E |---/3-0--/3-0------|--/3-0-3--/5\--0-----|---/3-0--3-----10--9------/3--/3--0--|
B |---/3-0--/3-0------|--/3-0-3--/5\--0-----|---/3-0--3----(10)(9)-----/3--/3--0--|
E |-------------------|---------------------|-------------------------------------|

[Verse]
Pick this over the verse or similar.

e |--------------------0-----------------------|--------------------0-----------------------|
B |--------------------------------------------|--------------------------------------------|
G#|------3--------3---------3----------3-------|------1--------1---------1----------1-------|
E |----------0-----------------0----------0----|----------0-----------------0----------0----|
B |--5------------------------------5----------|--3------------------------------3----------|
E |--------------------------------------------|--------------------------------------------|

e |--------------------0-----------------------|-----------------0---------||---------|
B |--------------------------------------------|---------------0-----------||---------|
G#|------0--------0---------0----------0-------|-------------------0-------||---------|
E |----------0-----------------0----------0----|---------------------------||----15\--|
B |--2------------------------------2----------|---3/5--3--0---------------||----15\--|
E |--------------------------------------------|---3/5--3--0---------------||---------|

So here's my situation, for all the world to see
Gone is my innocence, all that's left is me

Rising up, just to tear me down
I can be your perfect stranger, but just not now

[Repeat Intro]
e |----------------0--|------------------0--|-------------------------------------|
B |----------------0--|------------------0--|-------------------------------------|
G#|-------------------|---------------------|-------------------------------------|
E |---/3-0--/3-0------|--/3-0-3--/5\--0-----|---/3-0--3-----10--9------/3--/3--0--|
B |---/3-0--/3-0------|--/3-0-3--/5\--0-----|---/3-0--3----(10)(9)-----/3--/3--0--|
E |-------------------|---------------------|-------------------------------------|

[Verse 2]

e |--------------------0-----------------------|--------------------0-----------------------|
B |--------------------------------------------|--------------------------------------------|
G#|------3--------3---------3----------3-------|------1--------1---------1----------1-------|
E |----------0-----------------0----------0----|----------0-----------------0----------0----|
B |--5------------------------------5----------|--3------------------------------3----------|
E |--------------------------------------------|--------------------------------------------|

e |--------------------0-----------------------|-----------------0---------||---------|
B |--------------------------------------------|---------------0-----------||---------|
G#|------0--------0---------0----------0-------|-------------------0-------||---------|
E |----------0-----------------0----------0----|---------------------------||----15\--|
B |--2------------------------------2----------|---3/5--3--0---------------||----15\--|
E |--------------------------------------------|---3/5--3--0---------------||---------|

Insomnia, it drains my life
Gone is the stranger from a forgotten time

Fly me out of the windowsill
No it ain't about my life, and it ain't about my will

[Bridge]
e |-----------------------------------------------|
B |-----------------------------------------------|
G#|-----------------------------------------------|
E |-----------------------------------------------|
B |-15/3--------/5--------5--/7-/8----/10----/10--|
E |-15/3--------/5--------5--/7-/8----/10----/10--|

Warring superstitions, Joy and inhibitions
I've been around along time, I can't lie to myself

[Chorus]
w/ slide
e |-------------------------------------|
B |-------------------------------------|
G#|-------------------------------------|
E |--7---5---4---2----------------------|
B |--5---3---2---0---5---3---/5--3--0---|
E |------------------5---3---/5--3--0---|

Dirt in my Pocket, Dirt on my Shoes
Makes a grown man win again, it's an easy man's Blues

Dirt on my Conscience, Dirt over you
Leaves a good man walking, Leads a blind man Blues

[Repeat Intro]
e |----------------0--|------------------0--|-------------------------------------|
B |----------------0--|------------------0--|-------------------------------------|
G#|-------------------|---------------------|-------------------------------------|
E |---/3-0--/3-0------|--/3-0-3--/5\--0-----|---/3-0--3-----10--9------/3--/3--0--|
B |---/3-0--/3-0------|--/3-0-3--/5\--0-----|---/3-0--3----(10)(9)-----/3--/3--0--|
E |-------------------|---------------------|-------------------------------------|

[Intrumental]
 Guitar 1 repeats this 
e |-10-10-10-9-9-9-7-7-7-5-5-4-5-7-7--|--10-10-10-9-9-9-7-7-7-5-5-4-5-7-4--|
B |-----------------------------------|------------------------------------|
G#|-----------------------------------|------------------------------------|
E |-----------------------------------|------------------------------------|
B |-----------------------------------|------------------------------------|
E |-----------------------------------|------------------------------------|

 Guitar 2 - 
e |-------------------------|----------------------------------------|
B |-------------------------|------/15-------------------------------|
G#|-------------------------|------------15/slow slide-12--12--------|
E |-----7~~~~-----7~~~~-----|-----------------------------------12---|
B |-----5~~~~-----5~~~~-----|----------------------------------------|
E |-------------------------|----------------------------------------|


[Verse 3] - 

e |--------------------0-----------------------|--------------------0-----------------------|
B |--------------------------------------------|--------------------------------------------|
G#|------3--------3---------3----------3-------|------1--------1---------1----------1-------|
E |----------0-----------------0----------0----|----------0-----------------0----------0----|
B |--5------------------------------5----------|--3------------------------------3----------|
E |--------------------------------------------|--------------------------------------------|

e |--------------------0-----------------------|-----------------0---------||---------|
B |--------------------------------------------|---------------0-----------||---------|
G#|------0--------0---------0----------0-------|-------------------0-------||---------|
E |----------0-----------------0----------0----|---------------------------||----15\--|
B |--2------------------------------2----------|---3/5--3--0---------------||----15\--|
E |--------------------------------------------|---3/5--3--0---------------||---------|

Lost in a Daze as I find myself
Looking for new ways, to find a way out

Causin' an effect, makes me drown a desire
Tempted by my fate, of a virgin fire

[Bridge]
e |-----------------------------------------------|
B |-----------------------------------------------|
G#|-----------------------------------------------|
E |-----------------------------------------------|
B |-15/3--------/5--------5--/7-/8----/10----/10--|
E |-15/3--------/5--------5--/7-/8----/10----/10--|

Warring superstitions, Joy and inhibitions
I've Been Around a Long time, I can't lie to myself

[Chorus]
w/ slide
e |-------------------------------------|
B |-------------------------------------|
G#|-------------------------------------|
E |--7---5---4---2----------------------|
B |--5---3---2---0---5---3---/5--3--0---|
E |------------------5---3---/5--3--0---|

Dirt in my Pocket's, Dirt on my Shoes
Makes a grown man win again, It's a easy man's Blues

Dirt on my Conscience, Dirt over you
Leaves a good man walking, it's a blind man's Blues

Dirt on my Conscience, Dirt over you
Makes a good man walking, it's a easy man's Blues yeah

[Outro]
e |----------------0--|------------------0--|-------------------------------------|
B |----------------0--|------------------0--|-------------------------------------|
G#|-------------------|---------------------|-------------------------------------| X 2
E |---/3-0--/3-0------|--/3-0-3--/5\--0-----|---/3-0--3-----10--9------/3--/3--0--|
B |---/3-0--/3-0------|--/3-0-3--/5\--0-----|---/3-0--3----(10)(9)-----/3--/3--0--|
E |-------------------|---------------------|-------------------------------------|

Hey, Dirt in my Pocket Now
Hmmmmmm mmmmmmm

**************************************
| / slide up
| \ slide down
| ~ let ring
(9) optional note
**************************************



            
            
Suggest correction
Creating personal tab
Creating personal tab
You can edit any tab online and save it as your Personal.

You can edit, replace or remove any tab part or add personal notes – all changes will be seen only by you.

Personal tabs can be accessed anytime from any device, even offline.
Learn more »
Give kudos to tab author, rate the tab!
1 2 3 4 5
comments
print report bad tab
guest
You may want to rate the tab now too:
select rating
Wanna post a correction for this tab? Suggest correction