Oops, an error
Loading. Please wait.

Stop solo tab

version 1
version 1

Solo

  • The solo of 'Stop', the studio version (as feature... Show more

Interactive

628 views 15 this week
1 commentread comment
1 2 3 4 5
2 more votes to show rating
add to favorites
×
Save as Personal and add changes to this tab that will be seen only by you. Learn more ›
×
You can save this tab as Personal to edit and correct it or add notes. All changes will be seen only by you. Learn more »
launch autoscroll
font size
0
reset
how to read this tab
guitar tuner
backing track
0:00
0:00
edit
Autoscroll
slow
fast
+/-
esc
set tempo
stop
Author
Difficulty
intermediate
About this tab version
The solo of 'Stop', the studio version (as featured ont the album 'The Ballad of John Henry' : https://www.youtube.com/watch?v=jMXXnLSRdBE). This solo is in the key of B minor and takes a lot from the Bm pentatonic scale, and also from the B minor scale. Was this info helpful? Yes No
[Solo]  (2:52-3:59)

[First Part]
e|----------------10---12b-|------10h12-----14---15b--14p12---10-------------|
B|-12---12---12------------|-12------------------------------------12---12~~-|
G|-------------------------|-------------------------------------------------|
D|-------------------------|-------------------------------------------------|
A|-------------------------|-------------------------------------------------|
E|-------------------------|-------------------------------------------------|

e|-17b---17b-|--17---14---17---17br---14-|---------14---17b---17---14---17---14---14\12---------14-----------|
B|--x--------|---------------------------|-----15-----------------------------------------15---------15---17-|
G|--x--------|---------------------------|-16----------------------------------------------------------------|
D|-----------|---------------------------|-------------------------------------------------------------------|
A|-----------|---------------------------|-------------------------------------------------------------------|
E|-----------|---------------------------|-------------------------------------------------------------------|

e|--x----------|--12br---10------|----------10---12---14---15b---12br---10---12br---10-----------------------|
B|-14br---12~~-|---x----------12-|-10---12----------------------------------------------12---14b---14br---12-|
G|--x----------|-----------------|---------------------------------------------------------------------------|
D|-------------|-----------------|---------------------------------------------------------------------------|
A|-------------|-----------------|---------------------------------------------------------------------------|
E|-------------|-----------------|---------------------------------------------------------------------------|

e|-x-----------------|---------------9---9---10---10---12---12/14---14---12~~-|
B|-15p14---12--14~~--|-12---10---12-------------------------------------------|
G|-16----------------|--------------------------------------------------------|
D|-------------------|--------------------------------------------------------|
A|-------------------|--------------------------------------------------------|
E|-------------------|--------------------------------------------------------|

e|-17b---17---17b---17---17br------------|
B|------------------------------17---17b-|
G|---------------------------------------|
D|---------------------------------------|
A|---------------------------------------|
E|---------------------------------------|

[Second Part]
e|--------------------------------------|-------------------------|
B|-----------------15---17b---17b---17b-|--17---15---17b---17b\0--|
G|--------14---16-----------------------|-------------------------|
D|-14h16--------------------------------|-------------------------|
A|--------------------------------------|-------------------------|
E|--------------------------------------|-------------------------|

e|------------------17b---17---15---14---12---14h15---14-|
B|-------------------------------------------------------|
G|--------14---16----------------------------------------|
D|-14h16-------------------------------------------------|
A|-------------------------------------------------------|
E|-------------------------------------------------------|

e|-17b---17pbr---17---15---14---14---12------12h14---14------|
B|---------------------------------------15---------------12-|
G|-----------------------------------------------------------|
D|-----------------------------------------------------------|
A|-----------------------------------------------------------|
E|-----------------------------------------------------------|

e|-17b---17---14---17--------------17-------------------|-17b---17b---17b---17br---19---19br\0--|
B|----------------------17---17b--(hold)---17br---15h17-|---------------------------------------|
G|------------------------------------------------------|---------------------------------------|
D|------------------------------------------------------|---------------------------------------|
A|------------------------------------------------------|---------------------------------------|
E|------------------------------------------------------|---------------------------------------|

e|-------------14---17b---17---15---14\12---------14-|-----14-------12---------------------------------------|
B|---------15--------------------------------15------|-15-------15-------15---17----------14---15p14----12~~-|
G|-16h18---------------------------------------------|------------------------------16h18--------------------|
D|---------------------------------------------------|-------------------------------------------------------|
A|---------------------------------------------------|-------------------------------------------------------|
E|---------------------------------------------------|-------------------------------------------------------|

e|--x-----------------------------------------------------------|--------------------------|
B|-15b---15---12------------------------------------------------|-----12---10--------------|
G|--x---------------14----11---------------------------------11-|-11------------11p9---7h9-|
D|----------------------------14---12----------------12---------|--------------------------|
A|--------------------------------------14---12h14--------------|--------------------------|
E|--------------------------------------------------------------|--------------------------|

e|------------------------------------------|
B|------12---14---17b---17pbr---14----------|
G|-11--------------------------------16br\0-|
D|------------------------------------------|
A|------------------------------------------|
E|------------------------------------------|

************************************

| h    Hammer-on
| p    Pull-off
| b    Bend
| ~    Vibrato
| br   Bend release
| \    Slide down
| x    Dead note
| /    Slide up
| pbr  Pre-bend release

************************************

            
            
Suggest correction
Creating personal tab
Creating personal tab
You can edit any tab online and save it as your Personal.

You can edit, replace or remove any tab part or add personal notes – all changes will be seen only by you.

Personal tabs can be accessed anytime from any device, even offline.
Learn more »
Give kudos to tab author, rate the tab!
1 2 3 4 5
comments
print report bad tab
1 comment total.
0 reply
mdvga 10 Feb 15, 2017 07:45 PM

I like the Royal Albert Hall version much better. My favorite Bonamassa song. mdv

guest
You may want to rate the tab now too:
select rating
Wanna post a correction for this tab? Suggest correction