Oops, an error
Loading. Please wait.

The Ballad Of John Henry bass

version 2
version 2

Whole song

Interactive

2,030 views 3 this week
no commentswrite comment
1 2 3 4 5
1 last vote to show rating
add to favorites
×
Save as Personal and add changes to this tab that will be seen only by you. Learn more ›
×
You can save this tab as Personal to edit and correct it or add notes. All changes will be seen only by you. Learn more »
launch autoscroll
font size
0
reset
guitar tuner
backing track
0:00
0:00
edit
Autoscroll
slow
fast
+/-
esc
set tempo
stop
Author
Difficulty
The Ballad of John Henry

Joe Bonamassa

Tabbed from 5 string to standard tuning 4 string

Tabbed by cadabberduck@gmail.com
     


G |-------------------------------------------------|
D |-------------------------------------------------|
A |--------2--------2--------5--------------0-------|
E |--7-----------5-----7-----------------7-----7----|


----------------------------------------------------|
----------------------------------------------------|
--------2-----2-----------5-----------7-------------|
--7--------5--------7-------------------------------|


----------------------------------------------------|
----------------------------------------------------|
--------2--------2--------5--------------0----------|
--7-----------5-----7-----------------7-----7-------|


----------------------------------------------------|
----------------------------------------------------|
--------2-----2-----------5-----------7-------------|
--7--------5--------7-------------------------------|


----------------------------------------------------|
----------------------------------------------------|
--------2--------2--------5--------------0----------|
--7-----------5-----7-----------------7-----7-------|


----------------------------------------------------|
----------------------------------------------------|
--------2-----2-----------5-----------7-------------|
--7--------5--------7-------------------------------|


----------------------------------------------------|
----------------------------------------------------|
--------2--------2--------5--------------0----------|
--7-----------5-----7-----------------7-----7-------|


----------------------------------------------------|
----------------------------------------------------|
--------2-----2-----------5-----------7-------------|
--7--------5--------7-------------------------------|


----------------------------------------------------|
----------------------------------------------------|
--------2--------2--------5--------------0----------|
--7-----------5-----7-----------------7-----7-------|


----------------------------------------------------|
----------------------------------------------------|
--------2-----2-----------5-----------7-------------|
--7--------5--------7-------------------------------|


----------------------------------------------------|
----------------------------------------------------|
--------2--------2--------5--------------0----------|
--7-----------5-----7-----------------7-----7-------|


----------------------------------------------------|----------|
----------------------------------------------------|----------|
--------2-----2-----------5-----------7-------------|----------|
--7--------5--------7-------------------------------|--7--7----|


----------------------------------------------------|
----------------------------------------------------|
--------2-----2-----------5-----------7-------------|
--7--------5--------7-------------------------------|


----------------------------------------------------|
----------------------------------------------------|
--------2--------2--------5--------------0----------|
--7-----------5-----7-----------------7-----7-------|


----------------------------------------------------|----------|
----------------------------------------------------|----------|
--------2-----2-----------5-----------7-------------|----------|
--7--------5--------7-------------------------------|--7--7----|


----------------|----------|----------------|----------|----------------|
----------------|----------|----------------|----------|----------------|
--------5--7----|----------|--------5--7----|----------|--------5--7----|
--7-------------|--7--7----|--7-------------|--7--7----|--7-------------|


----------|----------------|
----------|----------------|
----------|--------5--7----|
--7--7----|--7-------------|


----------------------------------------------------|
----------------------------------------------------|
--------2--------2--------5--------------0----------|
--7-----------5-----7-----------------7-----7-------|


----------------------------------------------------|
----------------------------------------------------|
--------2-----2-----------5-----------7-------------|
--7--------5--------7-------------------------------|


----------------------------------------------------|
----------------------------------------------------|
--------2--------2--------5--------------0----------|
--7-----------5-----7-----------------7-----7-------|


----------------------------------------------------|
----------------------------------------------------|
--------2-----2-----------5-----------7-------------|
--7--------5--------7-------------------------------|


----------------------------------------------------|
----------------------------------------------------|
--------2--------2--------5--------------0----------|
--7-----------5-----7-----------------7-----7-------|


----------------------------------------------------|
----------------------------------------------------|
--------2-----2-----------5-----------7-------------|
--7--------5--------7-------------------------------|


----------------------------------------------------|
----------------------------------------------------|
--------2--------2--------5--------------0----------|
--7-----------5-----7-----------------7-----7-------|


----------------------------------------------------|----------|
----------------------------------------------------|----------|
--------2-----2-----------5-----------7-------------|----------|
--7--------5--------7-------------------------------|--7--7----|


----------------|----------|----------------|----------|----------------|
----------------|----------|----------------|----------|----------------|
--------5--7----|----------|--------5--7----|----------|--------5--7----|
--7-------------|--7--7----|--7-------------|--7--7----|--7-------------|


----------|----------------|
----------|----------------|
----------|--------5--7----|
--7--7----|--7-------------|


----------------------------------------------------|
----------------------------------------------------|
--------2--------2--------5--------------0----------|
--7-----------5-----7-----------------7-----7-------|


----------------------------------------------------|
----------------------------------------------------|
--------2-----2-----------5-----------7-------------|
--7--------5--------7-------------------------------|


----------------------------------------------------|
----------------------------------------------------|
--------2--------2--------5--------------0----------|
--7-----------5-----7-----------------7-----7-------|


----------------------------------------------------|
----------------------------------------------------|
--------2-----2-----------5-----------7-------------|
--7--------5--------7-------------------------------|


----------------------------------------------------|
----------------------------------------------------|
----------------------------------------------------|
--2-----2-----2-----2-----2-----2-----3--------2----|


----------------------------------------------------|
----------------------------------------------------|
----------------------------------------------------|
--3--2--0-----0-------------------------------------|


----------------------------------------------------|
----------------------------------------------------|
----------------------------------------------------|
--2-----2-----2-----2-----2-----2-----3--------2----|


----------------------------------------------------|
----------------------------------------------------|
----------------------------------------------------|
--3--2--0-----0-------------------------------------|


----------------------------------------------------|
----------------------------------------------------|
----------------------------------------------------|
--2-----2-----2-----2-----2-----2-----3--------2----|


----------------------------------------------------|
----------------------------------------------------|
----------------------------------------------------|
--3--2--0-----0-------------------------------------|


----------------------------------------------------|
----------------------------------------------------|
----------------------------------------------------|
--2-----2-----2-----2-----2-----2-----3--------2----|


----------------------------------------------------|
----------------------------------------------------|
--------------------------------------5-------------|
--3--2--0-----0-------------------------------------|


----------------------------------------------------|
----------------------------------------------------|
----------------------------------------------------|
--2-----2-----2-----2-----2-----2-----3--------2----|


----------------------------------------------------|-------|-------|
----------------------------------------------------|-------|-------|
----------------------------------------------------|-------|-------|
--3--2--0-----0-------------------------------------|--7L---|--7----|


----------------------------------------------------|
----------------------------------------------------|
----------------------------------------------------|
--7--7--7--7--7--7--7--7--7--7--7--7--7--7--7--7----|


----------------------------------------------------|
----------------------------------------------------|
----------------------------------------------------|
--7--7--7--7--7--7--7--7--7--7--7--7--7--7--7--7----|


----------------------------------------------------|
----------------------------------------------------|
----------------------------------------------------|
--7--7--7--7--7--7--7--7--7--7--7--7--7--7--7--7----|


----------------------------------------------------|
----------------------------------------------------|
----------------------------------------------------|
--7--7--7--7--7--7--7--7--7--7--7--7--7--7--7--7----|


----------------------------------------------------|
----------------------------------------------------|
----------------------------------------------------|
--7--7--7--7--7--7--7--7--7--7--7--7--7--7--7--7----|


----------------------------------------------------|
----------------------------------------------------|
----------------------------------------------------|
--7--7--7--7--7--7--7--7--7--7--7--7--7--7--7--7----|


----------------------------------------------------|
----------------------------------------------------|
----------------------------------------------------|
--7--7--7--7--7--7--7--7--7--7--7--7--7--7--7--7----|


----------------------------------------------------|
----------------------------------------------------|
----------------------------------------------------|
--7--7--7--7--7--7--7--7--7--7--7--7--7--7--7--7----|


----------------------------------------------------|
----------------------------------------------------|
----------------------------------------------------|
--7--7--7--7--7--7--7--7--7--7--7--7--7--7--7--7----|


----------------------------------------------------|
----------------------------------------------------|
----------------------------------------------------|
--7--7--7--7--7--7--7--7--7--7--7--7--7--7--7--7----|


----------------------------------------------------|
----------------------------------------------------|
----------------------------------------------------|
--7--7--7--7--7--7--7--7--7--7--7--7--7--7--7--7----|


----------------------------------------------------|
----------------------------------------------------|
----------------------------------------------------|
--7--7--7--7--7--7--7--7--7--7--7--7--7--7--7--7----|


----------------------------------------------------|
----------------------------------------------------|
----------------------------------------------------|
--7--7--7--7--7--7--7--7--7--7--7--7--7--7--7--7----|


----------------------------------------------------|
----------------------------------------------------|
----------------------------------------------------|
--7--7--7--7--7--7--7--7--7--7--7--7--7--7--7--7----|


----------------------------------------------------|
----------------------------------------------------|
----------------------------------------------------|
--7--7--7--7--7--7--7--7--7--7--7--7--7--7--7--7----|


----------------------------------------------------|
----------------------------------------------------|
----------------------------------------------------|
--7--7--7--7--7--7--7--7--7--7--7--7--7--7--7--7----|


----------------------------------------------------|
----------------------------------------------------|
----------------------------------------------------|
--7--7--7--7--7--7--7--7--7--7--7--7--7--7--7--7----|


----------------------------------------------------|
----------------------------------------------------|
----------------------------------------------------|
--7--7--7--7--7--7--7--7--7--7--7--7--7--7--7--7----|


----------------------------------------------------|
----------------------------------------------------|
--------2--------2--------5--------------0----------|
--7-----------5-----7-----------------7-----7-------|


----------------------------------------------------|
----------------------------------------------------|
--------2-----2-----------5-----------7-------------|
--7--------5--------7-------------------------------|


----------------------------------------------------|
----------------------------------------------------|
--------2--------2--------5--------------0----------|
--7-----------5-----7-----------------7-----7-------|


----------------------------------------------------|
----------------------------------------------------|
--------2-----2-----------5-----------7-------------|
--7--------5--------7-------------------------------|


----------------------------------------------------|
----------------------------------------------------|
--------2--------2--------5--------------0----------|
--7-----------5-----7-----------------7-----7-------|


----------------------------------------------------|
----------------------------------------------------|
--------2-----2-----------5-----------7-------------|
--7--------5--------7-------------------------------|


----------------------------------------------------|
----------------------------------------------------|
--------2--------2--------5--------------0----------|
--7-----------5-----7-----------------7-----7-------|


----------------------------------------------------|
----------------------------------------------------|
--------2-----2-----------5-----------7-------------|
--7--------5--------7-------------------------------|


----------------------------------------------------|
----------------------------------------------------|
--------2--------2--------5--------------0----------|
--7-----------5-----7-----------------7-----7-------|


----------------------------------------------------|
----------------------------------------------------|
--------2-----2-----------5-----------7-------------|
--7--------5--------7-------------------------------|


----------------------------------------------------|
----------------------------------------------------|
--------2--------2--------5--------------0----------|
--7-----------5-----7-----------------7-----7-------|


----------------------------------------------------|
----------------------------------------------------|
--------2-----2-----------5-----------7-------------|
--7--------5--------7-------------------------------|


----------------------------------------------------|
----------------------------------------------------|
--------2--------2--------5--------------0----------|
--7-----------5-----7-----------------7-----7-------|


----------------------------------------------------|
----------------------------------------------------|
--------2-----2-----------5-----------7-------------|
--7--------5--------7-------------------------------|


----------------------------------------------------|
----------------------------------------------------|
--------2--------2--------5--------------0----------|
--7-----------5-----7-----------------7-----7-------|


----------------------------------------------------|
----------------------------------------------------|
--------2-----2-----------5-----------7-------------|
--7--------5--------7-------------------------------|


----------------------------------------------------|
----------------------------------------------------|
--0--5--------0--5--------0--5--------0--5----------|
----------------------------------------------------|


----------------------------------------------------|----------|
----------------------------------------------------|----------|
-----4-----------4-----------4-----------4----------|----------|
--4-----------4-----------4-----------4-------------|--7-------|






Legend
L - tied note
x - dead note
h - hammer on/pull off
b - bend
s - slide
~ - vibrato
g - ghost note
> - accentuated note
t - trill
M - palm mute
. - staccato
P - popping (bass)
S - slapping (bass)

            
            
Suggest correction
Creating personal tab
Creating personal tab
You can edit any tab online and save it as your Personal.

You can edit, replace or remove any tab part or add personal notes – all changes will be seen only by you.

Personal tabs can be accessed anytime from any device, even offline.
Learn more »
Give kudos to tab author, rate the tab!
1 2 3 4 5
comments
print report bad tab
guest
You may want to rate the tab now too:
select rating
Wanna post a correction for this tab? Suggest correction