Oops, an error
Loading. Please wait.

The Cows Came Home chords

19 views 1 this week
no commentswrite comment
1 2 3 4 5
3 more votes to show rating
add to favorites
×
Save as Personal and add changes to this tab that will be seen only by you. Learn more ›
×
You can save this tab as Personal to edit and correct it or add notes. All changes will be seen only by you. Learn more »
launch autoscroll
font size
0
reset
transpose
0
reset
display chords
guitar tuner
edit
Autoscroll
slow
fast
+/-
esc
set tempo
stop
Author
Difficulty
About this tab version
You can scroll and play the entire sog in real time. Intro for electric guitar is tabbed. Was this info helpful? Yes No
Strumming Is this strumming pattern correct? Yes No
73 bpm
1
&
2
&
3
&
4
&
5
&
6
&
7
&
8
&
Listen
ALBUM: Third Rock From the Sun (1994)

[INTRO]                                                                           
e|-3---------------------|------------------------------|-------------------------------|
B|---5b6b5-3---3-5b------|------------------------------|-------------------------------|
G|-----------5-----------|--0---0---0----0---0---0------|--0--0---0---0-----0--0--0-----|
D|-----------------------|--0---2---3--0-0---2---3------|--0--0---2-0-3---0-3--2--0-----|
A|-----------------------|------------------------------|-------------------------------|
E|-----------------------|------------------------------|-------------------------------|
  Aw Yea!                          
e|------------------------------|------------------------------|
B|------------------------------|------------------------------|
G|--0---0---0------0---0---0----|-----5b6b5--3-----------------|
D|--0-0-2---3----0-0---2---3----|--0------------5--------------|
A|------------------------------|------------------------------|
E|------------------------------|------------------------------|

[VERSE]
G                     C         A#  G 
I'm used to havin' my breakfast in bed
G                              C A# G 
Never have to lift a finger to butter my bread
C
I keep my baby satisfied if you know what I mean
G                                      C A# G 
'Cause she told me I'm walkin' talkin' love machine
D 
Lord, I got the self assurance of a king on a throne
G 
Cause she told me that she'd love me 'til the cows came home


[CHORUS]
C
The cows came home
D
The cows came home
C  D
I heard somethin' mooin' turned around and she was gone
G                    C    A#   G
Lord have mercy, the cows came home


[VERSE 2]
G                                  C A# G
The whole herd showed up when they heard she'd gone
G                            C   A# G
But I guess it's better than bein' alone
C
Well the slammin' of the door is like a pie in the face
G                             C  A# G
But I got enough milk for the human race
D
I didn't have to clue that there was anything wrong
G
'Cause she told me that she'd love me 'til the cows came home


[CHORUS 2]
C
The cows came home
D
The cows came home
C  D
I heard somethin' mooin' turned around and she was gone
G                    C    A#   G
Lord have mercy, the cows came home


[BRIDGE]
C       
I didn't see the writing on the wall
D 
Missed the invitation to the bovine ball
C
I didn't hear no cowbells ringin'
D
Gonna have to face the music that the fat lady's singin'


[SOLO CHORDS]
C  G  C  D

[CHORUS 3]
C
The cows came home
D
The cows came home
C  D
I heard somethin' mooin' turned around and she was gone
G                    C    A#   G
Lord have mercy, the cows came home
G                    C    A#   G
Lord have mercy, the cows came home


END. THANKS FOR VIEWING! PLEASE, REMEMBER TO RATE IF THIS HELPED YOU!

            
            
Suggest correction
Creating personal tab
Creating personal tab
You can edit any tab online and save it as your Personal.

You can edit, replace or remove any tab part or add personal notes – all changes will be seen only by you.

Personal tabs can be accessed anytime from any device, even offline.
Learn more »
Give kudos to tab author, rate the tab!
1 2 3 4 5
comments
print report bad tab
guest
You may want to rate the tab now too:
select rating
Wanna post a correction for this tab? Suggest correction