Oops, an error
Loading. Please wait.

Sunny And 75 intro tab

301 views 6 this week
no commentswrite comment
1 2 3 4 5
2 more votes to show rating
add to favorites
×
Save as Personal and add changes to this tab that will be seen only by you. Learn more ›
×
You can save this tab as Personal to edit and correct it or add notes. All changes will be seen only by you. Learn more »
launch autoscroll
font size
0
reset
how to read this tab
guitar tuner
edit
Autoscroll
slow
fast
+/-
esc
set tempo
stop
Author
Difficulty
About this tab version
This version puts the two guitar parts together. It is made for a lone player. Was this info helpful? Yes No
Each part is played over the designated chord which lasts four beats each. I find 
this easiest to fingerpick, but you could hybrid pick it as well. I find I have  
smoother transitions if I keep my pinky on the 5 of the D string. 
Let the base note ring throughout each measure. Any questions comment.
[Intro]
  F                     Am                G                 Em
e|---------3-----------|---------3-------|---------3-------|---------5-3~--------|
B|--0----0---0---0---0-|--0----0---0---0-|--0----0---0---0-|--0----0-------------|
G|-----5-------5-------|-----5-------5---|-----5-------5---|-----5---------------|
D|-----3---------------|-----------------|-----5-----------|---------------------|
A|---------------------|-----0-----------|-----------------|---------------------|
E|---------------------|-----------------|-----------------|-----0---------------|
  F                 Am                    G                 Em
e|---------3-------|-------------3-------|---------3-------|---------3-0---------|
B|--0----0---0---0-|--0---0----0---0---0-|--0----0---0---0-|--0----0-----3-1~----|
G|-----5-------5---|---------5-------5---|-----5-------5---|-----5---------------|
D|-----3-----------|---------------------|-----5-----------|---------------------|
A|-----------------|---------0-----------|-----------------|---------------------|
E|-----------------|---------------------|-----------------|-----0---------------|
                                                             You play this as the last measure imitating
                                                             the electric guitar or you can play it as
                                                             it occurred over Em the first time.
************************************
| ~   Vibrato
************************************

            
            
Suggest correction
Creating personal tab
Creating personal tab
You can edit any tab online and save it as your Personal.

You can edit, replace or remove any tab part or add personal notes – all changes will be seen only by you.

Personal tabs can be accessed anytime from any device, even offline.
Learn more »
Give kudos to tab author, rate the tab!
1 2 3 4 5
comments
print report bad tab
guest
You may want to rate the tab now too:
select rating
Wanna post a correction for this tab? Suggest correction