Oops, an error
Loading. Please wait.
We have an official Surfing With The Alien tab made by UG professional guitarists. Check out the tab »
×
128,471 views 102 this week
45 commentsread comments
1 2 3 4 5
x 53
add to favorites
×
Save as Personal and add changes to this tab that will be seen only by you. Learn more ›
×
You can save this tab as Personal to edit and correct it or add notes. All changes will be seen only by you. Learn more »
launch autoscroll
font size
0
reset
how to read this tab
guitar tuner
edit
Autoscroll
slow
fast
+/-
esc
set tempo
stop
Author
Unregistered
`Surfing With The Alien` by Joe Satriani from `Surfing With The Alien`

   Jet Plane Sample               P.M.---------------------|         P.M.-------|
E||--------------------|-----------------------------|--------------------------|
B||--------------------|-----------------------------|--------6--5--------------|
G||--------------------|-----------------------------|--------3--5--------------|
D||-----------------5--|--(5)--5---------------------|--------3--5---5--7--3----|
A||-----------------5--|--(5)--5--5--5---5--5--5--5--|-----3-----3---3--3--3----|
E||-----------------3--|--(3)--3--3--3---3--3--3--3--|--6-----------------------|

    P.M.------------------|                     ~~~~~----------------------|
E|---------------------------|---------------------------------|-----------|
B|---------------------------|---------------------------------|-----------|
G|---------------------------|--2>(3)>(2)--0--/5------0--------|-----------|
D|--8--8--7--3---5--5--7--5--|--2>(3)>(2)--0--/5------0-----5--|--(5)--5---|
A|--3--3--3--3---3--3--3--3--|------------------------------5--|--(5)--5---|
E|---------------------------|---------------------------0--3--|--(3)--3---|

   P.M.---------------------|         P.M.-------------------------|
E|---------------------|------------------------|-------------------|
B|---------------------|--------6--5------------|-------------------|
G|---------------------|--------3--5------------|-------------------|
D|---------------------|--------3--5---5--7--3--|--8-----7--3---5---|
A|--5--5---5--5--5--5--|-----3-----3---3--3--3--|--3--3--3--3---3---|
E|--3--3---3--3--3--3--|--6---------------------|-------------------|

                                        ~~~~~~~~~~                ~~~~
E|-----------------|-------------------------|-----------------------------|
B|-----------------|-------------------------|-----------------------------|
G|--0--3>(3.5)--0--|--5--0--3>(3.5)--0---12--|--(12)--12/(10)------10--12--|
D|--0--3>(3.5)--0--|--5--0--3>(3.5)--0-------|-----------------12----------|
A|-----------------|-------------------------|-----------------------------|
E|-----------------|-------------------------|-----------------------------|

           ~~~~~~                                       ~~~~~~~~~~~     ~~~~
E|----------------------|-----------------------------------|---------------|
B|----------------------|-----------------------------------|---------------|
G|--9>(10)>9------(9)/--|-----------------------------------|-----------12--|
D|----------------------|-------8>(8.5)------10--8>(9)------|---------------|
A|----------------------|--/10-----------10-------------10--|--(10)/--------|
E|----------------------|-----------------------------------|---------------|


     ~~~~                                                     ~~~~~
E|-------------------------------------|------------------------------------|
B|--------------------11>(12)----------|--11>(11.5)--11>(12)----------------|
G|--(12)--12/(10)--------------12--10--|----------------------12-----(12)/--|
D|----------------12-------------------|------------------------------------|
A|-------------------------------------|------------------------------------|
E|-------------------------------------|------------------------------------|

                                 sh
                                 ~~~~     ~~~~~~           ~~~~     ~~~~~
E|-------------------------------------|-------------------------|--------|
B|-------------------------------------|-------------------------|--------|
G|-------------------------------------|-------------------12----|--(12)--|
D|-------8>(8.5)------10--8>(9)--------|-------------------------|--------|
A|--/10-----------10-------------10----|--10------(10)/----------|--------|
E|-------------------------------------|-------------------------|--------|

               sh               sh                                sh
               ~~~~                     ~~~~~~
E|----------------------------|------------------------|--------------------|
B|----------------------------|------------------------|--------------------|
G|--12/(10)-----10----12--12--|--9>(10)--9-------(9)/--|--------------------|
D|----------12----------------|------------------------|-----------8>(8.5)--|
A|----------------------------|------------------------|--/10--10-----------|
E|----------------------------|------------------------|--------------------|

                          ~~~~~~           ~~~~      ~~~~
E|---------------------|--------------------------|--------------------------|
B|---------------------|--------------------------|--------------------------|
G|---------------------|--------------------------|-----------------15>(16)--|
D|------10--8>(9)------|--------------------17----|--(17)---15---------------|
A|--10-------------10--|--(10)-----(10)/----------|-------------17-----------|
E|---------------------|--------------------------|--------------------------|

                           ~~~~~~
E|----------|------------------------------|---------------------------------|
B|----------|------------------------------|------15------17--15>(15.5)------|
G|----------|--15--15>(16)-----------------|------15------17--15>(15.5)------|
D|--17--15--|---------------17------(17)/--|--17------17-----------------17--|
A|----------|------------------------------|---------------------------------|
E|----------|------------------------------|---------------------------------|

                      sh--------------------------|
     ~~~~~~                                        ~~~~~~    P       hold bend
E|------------------|------------------------|-------------------|------------|
B|------------------|------------------------|-------------------|------------|
G|------------------|------------------------|-------------------|------------|
D|--(17)-----(17)/--|-----5>(7.5)--7--7>(9)--|-----5-------7--5--|--7>(8)-----|
A|------------------|--7---------------------|--7----------------|------------|
E|------------------|------------------------|-------------------|------------|

             sh       sh     sh ~~~~~~                P         sh
E|-------------------|--------------------------|----------------------|
B|-------------------|--------------------------|----------------------|
G|-------------------|--5-----5-----------------|----------------------|
D|--(8)>(7)---7>(8)--|-----7-----5-------7--5/--|----------5--7--7(9)--|
A|-------------------|--------------------------|----5--3--------------|
E|-------------------|--------------------------|----------------------|

    sh-------|                                      sh
      P   ~~~~~~                H~~~~~~        rake               sh
E|-------------------------|----------------|-------------|------------------|
B|-------------------------|----------------|-------------|------------------|
G|-------------------------|----------------|-------5t>0--|-------12>(12.5)--|
D|--------5-------5--7--5--|--5--7--(7)t<0--|-----X-------|--/14-------------|
A|--5--3-------------------|----------------|--X----------|------------------|
E|-------------------------|----------------|-------------|------------------|

   sh-------|                 ~~~~     P                         sh
                                               slow bend         repick bend
E|---------------|---------------------------|-------------|--15---------13--|
B|---------------|---------------------------|-------------|-----------------|
G|--14--14>(16)--|-------------12----14--12--|--14>(15)----|------15>14------|
D|---------------|--14>(14.5)----------------|-------------|-----------------|
A|---------------|---------------------------|-------------|-----------------|
E|---------------|---------------------------|-------------|-----------------|

   Use trem bar
   ~~~~~~~~~~~~~~~~~~~~    sh--------------------|          ~~~~~~------------|
E|--(13)----------|--(13)/----------------------------|------------------------|
B|----------------|-----------------------------------|------------------------|
G|--(14)----------|--(14)/----------12--14---14>(16)--|------12------14--12----|
D|----------------|---------/12--X--------------------|--12--------------------|
A|----------------|-----------------------------------|------------------------|
E|----------------|-----------------------------------|------------------------|

    Use trem bar
    ~~~~~~~~~~~~~      Jet plane   T  P    T     P    T  P    T  P    T
E|-----------------|---------------22--21--22--|--21--22--21--22--21--22--21--|
B|-----------------|---------------------------|------------------------------|
G|--14-------------|---------------------------|------------------------------|
D|-----------------|---------------------------|------------------------------|
A|-----------------|---------------------------|------------------------------|
E|-----------------|---------------------------|------------------------------|

   T  P    T  P    T  P    T  P    T  P    T  P    T  P    T  P    T     P
E|--22--21--22--21--22--21--22--21--22--21--22--21--22--21--22--19--22--|--19--|
B|----------------------------------------------------------------------|------|
G|----------------------------------------------------------------------|------|
D|----------------------------------------------------------------------|------|
A|----------------------------------------------------------------------|------|
E|----------------------------------------------------------------------|------|

   T  P    T  P    T  P        T  P    T  P    T  P    T  P    T  P
E|--22--19--22--19--22--21--21--22--21--22--17--22--17--22--17--22--19--|
B|----------------------------------------------------------------------|
G|----------------------------------------------------------------------|
D|----------------------------------------------------------------------|
A|----------------------------------------------------------------------|
E|----------------------------------------------------------------------|

   T  P    T  P    T     P    T  P    T  P    T  P    T  P    T  P
E|--22--19--22--19--22--|--16--22--16--22--17--22--17--22--16--22--16--|
B|----------------------|----------------------------------------------|
G|----------------------|----------------------------------------------|
D|----------------------|----------------------------------------------|
A|----------------------|----------------------------------------------|
E|----------------------|----------------------------------------------|

   T  P    T  P    T  P    T  P    T  P    T  P    T     P    T  P    T  P
E|--22--14--22--14--22--14--22--13--22--13--22--14--22--|--14--22--13--22--14--|
B|------------------------------------------------------|----------------------|
G|------------------------------------------------------|----------------------|
D|------------------------------------------------------|----------------------|
A|------------------------------------------------------|----------------------|
E|------------------------------------------------------|----------------------|

   T  P    T  P    T  P   T  P   T   T  P   T  P
E|--22--13--22--13--21--9--21--9--21--21--9--21--7------------|
B|--------------------------------------------------7/--X--X--|
G|------------------------------------------------------X--X--|
D|------------------------------------------------------------|
A|------------------------------------------------------------|
E|------------------------------------------------------------|

                 P      P  H  H   P  P      P  P        P  H  P
E|--X--9>(10>(9)--7--10--7--9--10--9--7---------------|------------------------|
B|--X------------------------------------10--9--7-----|---------------------X--|
G|--X----------------------------------------------9--|--7--9--7/(6)--7--9-----|
D|----------------------------------------------------|------------------------|
A|----------------------------------------------------|------------------------|
E|----------------------------------------------------|------------------------|

        H  P           H  P           H  P        H  H  P  P        H  P
E|--------------------------------|--------------------------------------------|
B|--------------------------------|--------------------------------------------|
G|-----6--7--6--------6--7--6-----|--------------------------------------------|
D|--9-----------9--9-----------9--|--6--7--6-----6--7--9--7--6-----6--7--6-----|
A|--------------------------------|-----------9-----------------9-----------9--|
E|--------------------------------|--------------------------------------------|

                                                    sh       sh
     P  H  H  P         ~~~~                 P.M.--|  ~~~~
E|---------------|--------------------|--------------------------|--------------|
B|---------------|--------------------|--------------------------|--------------|
G|---------------|--------------------|--------------------------|--------------|
D|---------------|--------------------|--X-----------------------|--------------|
A|--7--0--5--7--4/(2)/(4)--4---4/11/--|--X--6--7--6--4-----6--5--|--6--7--7--6--|
E|---------------|--------------------|--------------------------|--------------|

   sh----|                 sh          sh----------------------------|
         ~~~~     ~~~~
E|--------------|-----------------------------------------------------|
B|--------------|-----------------------------------------------------|
G|--------6-----|--(6)------6>(6.5)-----6>(6.5)--6>(6.5)--6>(6.5)-----|
D|--------------|--------8-----------8-----------------------------8--|
A|--6--7--------|-----------------------------------------------------|
E|--------------|-----------------------------------------------------|

    sh             sh                                P.M.      P.M.
                   ~~~~                ~~~~          ~~~~               ~~~~
E|----------------------------------|--------------------------------|--------|
B|----------------------------------|--------------------------------|--------|
G|--6>(6.5)-----6---------------12--|--12----13----------------12----|--12----|
D|-----------8-----6-------/11------|------------12--11----13--------|--------|
A|----------------------------------|--------------------------------|--------|
E|----------------------------------|--------------------------------|--------|

                            hold bend
                            ~~~~~~            H                P       ~~~~
E|----------------------------------|--11---------------11-------------------|
B|-------------14>(16)>(15)>(16)----|------11--14>(16)------14--11--14>(16)--|
G|--13------X-----------------------|----------------------------------------|
D|------11--X-----------------------|----------------------------------------|
A|----------------------------------|----------------------------------------|
E|----------------------------------|----------------------------------------|

                 P
E|------|--11--------------------------------------|
B|--11--|------14--11--14---14>(16)>(14)/20/22t<0--|
G|------|------------------------------------------|
D|------|------------------------------------------|
A|------|------------------------------------------|
E|------|------------------------------------------|

             P           P     P                 P         P     P     P
E|------------------------------------------|----------------------------------|
B|------------------------------------------|----------------------------------|
G|------------------------------------------|----------------------------------|
D|--7--8--4--4--4--8--4--7--4/(3)/(4)--7/8--|--7--4/(3)/(4)--7--4--8--4--7-----|
A|------------------------------------------|----------------------------------|
E|------------------------------------------|----------------------------------|

                P           P     P        P        P                    ~~~~
E|----------------------|---------------------------------------------|---------|
B|----------------------|---------------------------------------------|---------|
G|-------------------8--|--------------8------------------------------|---------|
D|--4/(3)/(4)--7--4-----|--8--4--7--4-----7--4--8--7--4--8------------|---------|
A|----------------------|-----------------------------------0--6>(8)--|-->(6)/--|
E|----------------------|---------------------------------------------|---------|

                                    Use trem bar
                                    ~~~~~~~~~                         ~~~~~~
E|------20>(23)--|-->(23)>(20)---20>(23)---------->(20)---20>(23)--|--(23)----|
B|---------------|-------------------------------------------------|----------|
G|---------------|-------------------------------------------------|----------|
D|---------------|-------------------------------------------------|----------|
A|---------------|-------------------------------------------------|----------|
E|---------------|-------------------------------------------------|----------|

                                    trem bar pulled up high and then dive
          ~~~~~~       harm         harm
E|-->(20)>(23)-----X/---------|---------------------------------------------|
B|-----------------X/---------|---------------------------------------------|
G|----------------------14----|------14t>19t<9------------------------------|
D|----------------------------|---------------------------------------------|
A|----------------------------|---------------------------------------------|
E|----------------------------|---------------------------------------------|

                               Use trem bar     pre bend
                               ~~~~~~
E|--------------|-----------15---------------|-----------13---------------|
B|--------------|----------------------------|----------------15------15--|
G|--------------|--14>(16)-------------------|--15>(14)-----------14------|
D|--X--X--X-----|----------------------------|----------------------------|
A|--X--X--X-----|----------------------------|----------------------------|
E|--X--X--X--0--|----------------------------|----------------------------|

                                                P                    ~~~~
E|------------------------12--------------|--------------------------------|
B|---------------15---------------15--12--|--------------------------------|
G|--14>(16)--12--14>(16)------14----------|--14--12-----------------12-----|
D|----------------------------------------|--------------------------------|
A|----------------------------------------|----------14--10t<0-------------|
E|----------------------------------------|--------------------------------|

     ~~~~             ~~~~                    sh ~~~~
E|---------------------------------|-------------------------|--------------|
B|---------------------------------|-------------------------|--------------|
G|--(12)---12/10------10----12--X--|--9>(10)--9--------(9)/--|--------------|
D|----------------12---------------|-------------------------|--------------|
A|---------------------------------|-------------------------|-----/10--10--|
E|---------------------------------|-------------------------|--X-----------|

                           ~~~~      ~~~~~~            ~~~~      ~~~~
E|--------------------------------|---------------------------|-----------------|
B|--------------------------------|---------------------------|-----------------|
G|--------------------------------|--------------------12-----|--(12)--12/(10)--|
D|--8>(8.5)------10--8>(9)--------|---------------------------|-----------------|
A|-----------10-------------10----|--(10)-----(10)/-----------|-----------------|
E|--------------------------------|---------------------------|-----------------|

                                               ~~~~~~
E|-----------------------|-------------------------------------|----------|
B|------11>(12)----------|--11>(11.5)--11>(12)-----------------|----------|
G|---------------12--10--|----------------------12------(12)/--|----------|
D|--12-------------------|-------------------------------------|----------|
A|-----------------------|-------------------------------------|--X--/10--|
E|-----------------------|-------------------------------------|----------|

                                 ~~~~                ~~~~    ~~~~~~
E|-------------------------------------|-------------------|-------------------|
B|-------------------------------------|-------------------|-------------------|
G|-------------------------------------|------------12-----|--(12)----12/(10)--|
D|--8>(8.5)------10--8>(9)-------------|-------------------|-------------------|
A|-----------10------------8/(10)-10---|--10/--------------|-------------------|
E|-------------------------------------|-------------------|-------------------|

       ~~~~                      ~~~~                                     ~~~~
E|-------------------|------------------|--------------------------------------|
B|-------------------|------------------|--------------------------------------|
G|------10----12--0--|--9>(10)----9/----|--------------------------------------|
D|--12---------------|------------------|-------8>(8.5)------10--8>(9)---------|
A|-------------------|------------------|--/10-----------10------------10--10--|
E|-------------------|------------------|--------------------------------------|

              ~~~~     ~~~~
E|------------------|--------------------------------------|-------------|
B|------------------|--------------------------------------|-------------|
G|------------------|---------------------15>(16)----------|--15>(15.5)--|
D|-----------/17----|--(17)--17/(15)---------------17--15--|-------------|
A|--10/-------------|-----------------17-------------------|-------------|
E|------------------|--------------------------------------|-------------|

                                                ~~~~   ~~~~
E|----------------|---------------------------------|---------------|
B|----------------|---------15------17--15----------|---------------|
G|--15>(16)-------|---------15--17--17--------------|---------------|
D|-----------17/--|--X--17------17----------17--17--|--17----(17)/--|
A|----------------|---------------------------------|---------------|
E|----------------|---------------------------------|---------------|

                                 ~~~~           slow
     sh---------------------------|      P      bend       H|            sh
E|-------------------------|-----------------|-----------------|-----------|
B|-------------------------|-----------------|-----------------|-----------|
G|-------------------------|-----------------|-----------------|--5--------|
D|------5>(5.5)--7--7>(9)--|-----5-----7--5--|--7>(8)----7--8--|-----7--7--|
A|--/7---------------------|--7--------------|-----------------|-----------|
E|-------------------------|-----------------|-----------------|-----------|

    ~~~~                                          P   ~~~~              ~~~~
E|--------------|----------------------------|--------------------|-----------|
B|--------------|----------------------------|--------------------|-----------|
G|--------------|----------------------------|--------------------|-----------|
D|--5-----7--5--|---------5>(5.5)--7--7>(9)--|--------5-----7--5--|--7--7-----|
A|--------------|--/5--X---------------------|--7--5--------------|-----------|
E|--------------|----------------------------|--------------------|-----------|

                   sh--|
                rake                   sh-----------------------------------|
E|-----------|--------7t<0--|-----------------------------------------------|
B|-----------|------7-------|--X/-------------------------------------------|
G|-----------|----X---------|--X/----------12>(12.5)--14>(14.5)--14>(16)----|
D|--(7)/--X--|--X-----------|---------/14-----------------------------------|
A|-----------|--------------|-----------------------------------------------|
E|-----------|--------------|------0----------------------------------------|

    sh--------------|
        ~~~~     P
E|--------------------|-----------|------------------------------------------|
B|--------------------|-----------|--15----------------13--------------------|
G|------12----14--12--|--14>(15)--|------14>(15)>(14)------14/(12)--14>(16)--|
D|--14----------------|-----------|------------------------------------------|
A|--------------------|-----------|------------------------------------------|
E|--------------------|-----------|------------------------------------------|

        ~~~~             ~~~~~                     jet planE|--------------------|
E|--------------------|-------------------------|--------|------|------|--------|
B|--------------------|-------------------------|--------|------|------|--------|
G|------12----14--12--|--14\/\/\/\/\/\/\/\/\/\--|--(14)--|------|------|--------|
D|--12----------------|-------------------------|--------|------|------|--------|
A|--------------------|-------------------------|--------|------|------|--------|
E|--------------------|-------------------------|--------|------|------|--------|
                         grad depress term bar
                         while vibrating it

      P     P        P        P     P        P           P     P        P
E|--7--3--7--3-----7--3-----7--3--7--3-----7--3-----|--7--3--7--3-----7--3-----|
B|--------------6--------6--------------6--------6--|--------------6--------5--|
G|--------------------------------------------------|--------------------------|
D|--------------------------------------------------|--------------------------|
A|--------------------------------------------------|--------------------------|
E|--------------------------------------------------|--------------------------|

      P     P        P           P     P        P        P     P        P
E|--6--3--6--3-----6--3-----|--6--3--6--3-----6--3-----6--3--6--3-----6--3-----|
B|--------------5--------5--|--------------5--------5--------------5--------5--|
G|--------------------------|--------------------------------------------------|
D|--------------------------|--------------------------------------------------|
A|--------------------------|--------------------------------------------------|
E|--------------------------|--------------------------------------------------|

      P     P        P        P     P        P           P        P
E|--6--3--6--3-----6--3-----7--3--7--3-----7--3-----|--8--3-----7--3-----|
B|--------------5--------5--------------6--------6--|--------6--------3--|
G|--------------------------------------------------|--------------------|
D|--------------------------------------------------|--------------------|
A|--------------------------------------------------|--------------------|
E|--------------------------------------------------|--------------------|

     P        P        P           P        P        P        P        P
E|--8--3-----7--3-----8--3-----7--|--3-----8--3-----6--3-----6--3-----6--3-----|
B|--------6--------6--------6-----|-----6--------6--------5--------5--------5--|
G|--------------------------------|--------------------------------------------|
D|--------------------------------|--------------------------------------------|
A|--------------------------------|--------------------------------------------|
E|--------------------------------|--------------------------------------------|

                                                          ~~~~~~    +
E|------------|---------------3----------------------|-------------------|
B|--3--6>(8)--|--(8)>(6)>(8)-----6--3--6-------------|---------------17--|
G|------------|---------------------------(5)>7>(5)--|--3----------------|
D|------------|--------------------------------------|-----5-------------|
A|------------|--------------------------------------|-------------------|
E|------------|--------------------------------------|-------------------|

+ Point your trem bar backwards and hit it with your right hand on every + to
  'play' the fretted note or simply depress the trem bar to sound the notes.
  Each + means to depress the note by approx. 2 frets.

   H         P         P         H   P      H    P      ~~~~~~        H
   +     +    +    +    +    +    +   +      +   +      +       +      +
E|----------------------------------------|-------------------------|------|
B|--18--(18)--17--(17)--15--(15)--17--15--|--18--17-------------17--|--18--|
B|----------------------------------------|----------X--15----------|------|
D|----------------------------------------|-------------------------|------|
A|----------------------------------------|-------------------------|------|
E|----------------------------------------|-------------------------|------|

        P         P         H   P      H   P       ~~~~~~        H
    +    +    +    +    +    +   +      +   +      +       +      +
E|------------------------------------|-------------------------|------|
B|--(18)--17--(17)--15--(15)--17--15--|--18--17-------------17--|--18--|
G|------------------------------------|----------X--15----------|------|
D|------------------------------------|-------------------------|------|
A|------------------------------------|-------------------------|------|
E|------------------------------------|-------------------------|------|

        P         P         H   P      H   P       ~~~~~~
    +    +    +    +    +    +   +      +   +      +       +      +
E|------------------------------------|-------------------------|------|
B|--(18)--17--(17)--15--(15)--17--15--|--18--17-------------17--|--18--|
G|------------------------------------|----------X--15----------|------|
D|------------------------------------|-------------------------|------|
A|------------------------------------|-------------------------|------|
E|------------------------------------|-------------------------|------|

        P
    +    +  H    +    +
E|-----------------------------------------|--------------18--|--(18)--|
B|--(18)--17------15--(15)--18>(20)t>(25)--|--(25)<0------17--|--(17)--|
G|-----------------------------------------|------------------|--------|
D|------------17---------------------------|------------------|--------|
A|-----------------------------------------|------------------|--------|
E|-----------------------------------------|------------------|--------|
                           pull trem bar right up
                           and then dive it

                         ~~~~                     ~~~~          ~~~~     P
E|--(18)>(18.5)--15------------18--|--18---18--|--18----15------------17--15--|
B|--(17)>(17.5)------18>(20)-------|--17-------|------------18>(20)---17--15--|
G|---------------------------------|-----------|------------------------------|
D|---------------------------------|-----------|------------------------------|
A|---------------------------------|-----------|------------------------------|
E|---------------------------------|-----------|------------------------------|

                  H                      H
E|--18>(18.5)--15------15--18>(18.5)--15------15-----------------|----------|
B|--17>(17.5)--15--17--15--17>(17.5)--15--17------17>(17.5)--15--|--17--15--|
G|---------------------------------------------------------------|----------|
D|---------------------------------------------------------------|----------|
A|---------------------------------------------------------------|----------|
E|---------------------------------------------------------------|----------|
    It looks complicated but is simply a
    series of blues bends to both notes.

E|--18>(18.5)----------15-----------------18------18>(18.5)--|----------15--|
B|--17>(17.5)--15--17------17>(17.5)--15------17--17>(17.5)--|--15--17------|
G|-----------------------------------------------------------|--------------|
D|-----------------------------------------------------------|--------------|
A|-----------------------------------------------------------|--------------|
E|-----------------------------------------------------------|--------------|

E|--18>(18.5)--------------18>(18.5)--15--17--15--|--18>(18.5)------18--|
B|--17>(17.5)--15--17--15--17>(17.5)--15--17--15--|--17>(17.5)--15--17--|
G|------------------------------------------------|---------------------|
D|------------------------------------------------|---------------------|
A|------------------------------------------------|---------------------|
E|------------------------------------------------|---------------------|

                             +    +    +
E|--18>(19)--15/---------|-------------------3--3--6--|------------------|
B|--17>(18)--------------|----------------------3--6--|---------------5--|
G|----------------5>(7)--|--(5)--(5)--(5)-------------|--5>(7)--3-----5--|
D|-----------------------|----------------------------|------------5-----|
A|-----------------------|----------------------------|------------------|
E|-----------------------|----------------------------|------------------|
                            + Dip the trem
                              bar 2 frets

E|-----------------|-------------------------------------|----------------------|
B|--3>(3.5)--5--3--|--(3)>(3.5)--5--3--5>(5.5)--5--3--5--|--3>(3.5)----3>(3.5)--|
G|--3>(3.5)--5--3--|--(3)>(3.5)--5--3--5>(6)----5--3--5--|--3>(4)------3>(4)----|
D|-----------------|-------------------------------------|----------5-----------|
A|-----------------|-------------------------------------|----------------------|
E|-----------------|-------------------------------------|----------------------|

      harm                           sh               ~~~~        ~~~~
E|------------------|------------------------|---------------------------|
B|---------------6--|--8--6--6--6--6------6--|--6/-----5--------3--------|
G|--5--------/7--7--|--7--7--7--7--7--7---7--|--7/-----5--------3--3-----|
D|--5---5-----------|------------------------|------5--------5-----------|
A|------------------|------------------------|---------------------------|
E|------------------|------------------------|---------------------------|

                                                          ~~~~
                                                         H           T  P
E|-----------------------------------|-------------------------------13--10--|
B|-----------------------------------|---------------------------------------|
G|--5--3>(3.5)-----5--3>(3.5)--------|---------------------------------------|
D|--------------5--------------5--5--|--3>(3.5)--------3--5----(5)/----------|
A|-----------------------------------|-----------5--3------------------------|
E|-----------------------------------|---------------------------------------|

   T     P    T  P    T  P    T  P    T  P    T  P    T  P    T  P    T  P
E|--13--|--10--13--10--13--10--13--10--13--10--13--10--13--10--13--10--13--10--|
B|------|----------------------------------------------------------------------|
G|------|----------------------------------------------------------------------|
D|------|----------------------------------------------------------------------|
A|------|----------------------------------------------------------------------|
E|------|----------------------------------------------------------------------|

    T  P    T  P    T  P    T     P    T  P    T  P    T   T  P    T  P
E|--13--10--13--10--13--10--13--|--10--13--10--13--10--13--13--10--12--8--|
B|------------------------------|-----------------------------------------|
G|------------------------------|-----------------------------------------|
D|------------------------------|-----------------------------------------|
A|------------------------------|-----------------------------------------|
E|------------------------------|-----------------------------------------|

    T  P   T  P   T  P   T  P   T  P   T  P   T  P      T  P   T  P   T  P
E|--12--8--12--8--12--8--12--8--12--8--13--6--10--6--|--10--6--10--6--10--6--|
B|---------------------------------------------------|-----------------------|
G|---------------------------------------------------|-----------------------|
D|---------------------------------------------------|-----------------------|
A|---------------------------------------------------|-----------------------|
E|---------------------------------------------------|-----------------------|

                                                                      gradual
   T  P   T P  H   T P  H   T                            ~~~~         bend
E|--10--6--8--3--5--8--5--7--8/(17)--|----------------------------------------|
B|-----------------------------------|---------------/18>(20)---(18)/---------|
G|-----------------------------------|--(2)/(14)-----------------------5>(7)--|
D|-----------------------------------|----------------------------------------|
A|-----------------------------------|----------------------------------------|
E|-----------------------------------|----------------------------------------|
                                       hand slide,
                                       don't pick

     ~~~~~~                                      sh           sh
E|---------------------|--------------------------------|----------------------|
B|-----------6---------|--6---------6---------6---------|--6---------6---------|
G|--(7)---------5>(7)--|-----5>(7)-----5>(7)-----5>(7)--|-----5>(7)-----5>(7)--|
D|---------------------|--------------------------------|----------------------|
A|---------------------|--------------------------------|----------------------|
E|---------------------|--------------------------------|----------------------|

E|-----|----------------------3-------------|-----15--18>(19.5)--18--|
B|--6--|---------6---------3----------------|--15-----18>(20)----18--|
G|-----|--5>(7)-----5>(7)--------5/17>(19)--|------------------------|
D|-----|------------------------------------|------------------------|
A|-----|------------------------------------|------------------------|
E|-----|------------------------------------|------------------------|

                         P            ~~~~          ~~~~             ~~~~
E|--18>(18.5)--|--15----------15------------15------------|--15------------|
B|--18>(18.5)--|------18--15------18>(20)-------18>(20)---|------18>(20)---|
G|-------------|------------------------------------------|----------------|
D|-------------|------------------------------------------|----------------|
A|-------------|------------------------------------------|----------------|
E|-------------|------------------------------------------|----------------|

            ~~~~          ~~~~     ~~~~               ~~~~         +      +
E|--15------------15------------|--------15----------------------------|------|
B|------18>(20)-------18>(20)---|--(20)------18--(18)>20----(18)/--17--|--18--|
G|------------------------------|--------------------------------------|------|
D|------------------------------|--------------------------------------|------|
A|------------------------------|--------------------------------------|------|
E|------------------------------|--------------------------------------|------|

+ Same as before with the 2 fret dives

         P         P         H   P      H   P       ~~~~        H
     +    +    +    +    +    +   +      +   +      +     +      +
E|------------------------------------|-----------------------|------|
B|--(18)--17--(17)--15--(15)--17--15--|--18--17-----------17--|--18--|
G|------------------------------------|----------X--15--------|------|
D|------------------------------------|-----------------------|------|
A|------------------------------------|-----------------------|------|
E|------------------------------------|-----------------------|------|

         P         P         H   P      H   P       ~~~~        H
     +    +    +    +    +    +   +      +   +      +     +      +
E|------------------------------------|-----------------------|------|
B|--(18)--17--(17)--15--(15)--17--15--|--18--17-----------17--|--18--|
G|------------------------------------|----------X--15--------|------|
D|------------------------------------|-----------------------|------|
A|------------------------------------|-----------------------|------|
E|------------------------------------|-----------------------|------|

        P         P         H   P      H   P    ~~~~        Tapped
    +    +    +    +    +    +   +      +   +   +     *     Harmonic
E|------------------------------------|---------------------|-------------|
B|--(18)--17--(17)--15--(15)--17--15--|--18--17-------------|-------------|
G|------------------------------------|----------15----0t>--|--(12)--t<0--|
D|------------------------------------|---------------------|-------------|
A|------------------------------------|---------------------|-------------|
E|------------------------------------|---------------------|-------------|
                                                    depress trem bar
                                                   *depress trem bar
                                                    then pick note

                     P.M.---------------------|                     ~~~~----|
E|----------------|-----------------------------|---------------------------|
B|----------------|-----6---/10--6-----3--5--3--|--5>(6)--5>(6)--3--5-------|
G|--(12)<0--------|-/7--7---/10--7--7--3--5--3--|--5>(7)--5>(7)--3--5-------|
D|----------------|-/9--------------9-----------|---------------------------|
A|----------------|-----------------------------|---------------------------|
E|----------0t<0--|-----------------------------|---------------------------|

                                                  ~~~~
       P.M.-------------------------|             sh  P.M.     P.M.------------|
E|--------|--------------------------|----------------------------|------------|
B|--5--5--|--6--6--5--3--3--3--5--3--|--5>(6)---------------5--6--|--6-----5---|
G|--5--5--|--7--7--5--3--3--3--5--3--|--5>(7)--3------------5--7--|--7--7--5---|
D|--------|--------------------------|------------5-----5---------|------------|
A|--------|--------------------------|----------------------------|------------|
E|--------|--------------------------|----------------------------|------------|

Song begins to fade
                          P
    P.M.------------------------------------------------------------------|              
                           sh
E|--------------------|------------------------|--------------------------|
B|-----3-----3--X--3--|--6--5---3---/5--5--/6--|--6--6--5-----3-----3-----|
G|--3--------3--X--3--|--7--5---3---/5--5--/7--|--7--7--5-----3--5--3--5--|
D|--------5-----------|------------------------|-----------0-----5--------|
A|--------------------|------------------------|--------------------------|
E|--------------------|------------------------|--------------------------|

    sh         sh     ~~~~ P.M.                  P.M.     P.M.
E|--------------------------0--------|--------------------------------|
B|--------------------------0----/6--|--6--6--5---3----3--------3--5--|
G|--5>(6)>(5)--5>(6)-------------/7--|--7--7--5---3----3---5----3--5--|
D|--------------------5--------------|---------------------5----------|
A|-----------------------------------|--------------------------------|
E|-----------------------------------|--------------------------------|

       P      ~~~~                       P.M.     P.M.
E|---------------------------|--------5-----------------------------|
B|--/6--5--3--5-----5--3--6--|--6--6--6--------3--------------------|
G|--/7--5--3--5-----5--3--5--|--5--5------5----3--------3>(3.5)--5--|
D|---------------------------|---------------------5----3>(3.5)--5--|
A|---------------------------|--------------------------------------|
E|---------------------------|--------------------------------------|

                   sh ~~~~
E|------------------------------|-----------------------------|-------------|
B|--5>(6)>(5)--3------------/6--|--6--5--5--X--X--3--5--3--5--|--(5)>6>(5)--|
G|--5>(6)>(5)--3------------/7--|--7--5--5--X--X--3--5--3--5--|--(5)>6>(5)--|
D|-----------------5------------|-----------------------------|-------------|
A|------------------------------|-----------------------------|-------------|
E|------------------------------|-----------------------------|-------------|

       ~~~~                                       sh                  ~~~~
E|------------------|--------------------------|----------------------------|
B|--3--5--------/6--|--6--3--5--3--3-----------|----------------------------|
G|--3--5-----5------|--3--3--5-----3--5--3-----|----------------------------|
D|-----------5------|-----------------5--3--5--|----------------------------|
A|------------------|-----------------------5--|--3>(4)>(3)--1>(1.5)--------|
E|------------------|--------------------------|----------------------3-----|

                                                          ~~~~~~~
          harm------------------------------------------------------|
E|------------|--------------------|-------------------|------------|
B|------------|--------------------|-------------------|------------|
G|--------12--|--12---12--12-------|--5------5------5--|--(5)-------|
D|------------|-----------------5--|------5------5-----|------------|
A|------------|--------------------|-------------------|------------|
E|--X--X------|--------------------|-------------------|------------|

    use trem bar
    ~~~~~~~~~~~~~~~~~~~~
E|----------------|-------------------------------||
B|----------------|-------------------------------||
G|--(5)-----------|--(5)--------------------------||
D|----------------|-------------------------------||
A|----------------|-------------------------------||
E|----------------|---------(8)/(0)--------0t<----||
                            hand slide,
                            don't pick

P   -   Pull-off: Place both fingers on the notes to be sounded. Strike the
        first note and without picking, pull the finger off to sound the second
        (lower) note.
H   -   Hammer-on: Strike the first (lower) note, then sound the higher note
        with another finger by fretting it withot picking.
P.M.-   Palm-Mute: The note is partially muted by the right hand lightly
        touching the string(s) just before the bridge.
/   -   Slide: Strike the first note and then slide the same fretted finger
        up or down to the second note. Example: 2/4 is to slide from the 2nd
        fret up to the 4th and the fourth fret note is played.
        2/(4) is to slide from the 2nd fret up to the fourth fret, the 4th
        fret is not played.
        2/ means to slide from the 2nd fret up the neck of the guitar to an
        indefinite point. 9/ means to slide from the 9th fret down also to
        an indefinite point.
~~  -   Vibrato: The string is vibrated by rapidly bending and releasing the
        note with the left hand or tremolo bar.
X   -   Muffled strings: A percussive sound is produced by laying the left hand
        across the strings withouu depressing them and striking them with the
        right hand.
t   -   Tremolo bar: The pitch of the note or chord is dropped or raised a
        specified number of steps using the tremolo bar.
        Example: 7 t< 3 indicates to play the 7th fret and then lower the
        note to the same pitch as the note on the 3rd fret. 3 t< 0 would be a
        dive bomb. 5 t> 7 would be to raise the pitch to the 7th fret.
sh  -   Semi-Harmonic: The note is fretted normally and a harmonic is produced
        by adding the edge of the thumb or the tip of the index finger on the
        right hand to the normal pick attack. High volume or distortion will
        allow for a greater variety of harmonics.
harm -  Natural harmonic: Strike the note while the left hand lightly touches
        the string over the fret indicated.
T    -  Tapping: Hammer ('tap') the fret indicated with the right hand index
        or middle finger and pull off to the note fretted by the left hand.
X>Y   - Strike note X and bend up to Y. The string is hit when Y is reached.
X>(Y) - Strike note X and bend up to Y.
        Example: 5>(7)>(5) indicates a bend from the 5th fret up to the 7th
        fret and then released back to the 5th. The string is only hit once.
        3>(3.5)>(3) would indicate a blues bend and release which is a small
        very common bend. It's not a one fret bend but half of that.
        If you get confused, basically () notes aren't picked.
rake  - Drag the pick across the strings with a single downward or upward
        motion.

            
            
Suggest correction
Creating personal tab
Creating personal tab
You can edit any tab online and save it as your Personal.

You can edit, replace or remove any tab part or add personal notes – all changes will be seen only by you.

Personal tabs can be accessed anytime from any device, even offline.
Learn more »
comments
print report bad tab
45 comments total. Showing first comments.
+6 reply
andrewbiles 4,785 Oct 03, 2003 08:00 PM

This is note for note perfect from what I can see. Well done

+5 reply
troutBoy 65 Aug 17, 2004 08:00 PM

bloody amazing tab...bloody hard song...*****/***** 5 stars

+5 reply
PRS Master 10 Dec 12, 2004 07:00 PM

awesome...simply...awesome

guest
Wanna post a correction for this tab? Suggest correction