Oops, an error
Loading. Please wait.

Mondo Bongo tab

version 3
version 3

Whole song

1,266 views 9 this week
no commentswrite comment
1 2 3 4 5
1 last vote to show rating
add to favorites
×
Save as Personal and add changes to this tab that will be seen only by you. Learn more ›
×
You can save this tab as Personal to edit and correct it or add notes. All changes will be seen only by you. Learn more »
launch autoscroll
font size
0
reset
how to read this tab
guitar tuner
edit
Autoscroll
slow
fast
+/-
esc
set tempo
stop
-------------------------------------------------------------------------------
                             MONDO BONGO - Joe Stummer and The Mescaleros
-------------------------------------------------------------------------------
Tabbed by:Fred Feuerstein
E-mail:

Tuning:normal

e|-------7-7-7-7-7-10--------------------------------------------------------|
B|----------------------7-7-7-10------8-7---------8-7---7-7-7-7--------------|
G|-----------------------------------------9-9-9-------7-7-7-7---------------|
D|---------------------------------------------------------------------------|
A|---------------------------------------------------------------------------|
E|/9-9-----------------------------------------------------------------------|
                                                           I.            II.
e||:------------------------------------------------------|-----------:||-----------|
B||:-7-------7--------------------------------------------|-7-7-7-9---:||--7-7-7-7--|
G||:---9-7-----9-7----11-9-8-11-9-8----9-11-12-11-9-9-----|-9-9-9-11--:||--9-9-9-8--|
D||:------------------------------------------------------|-----------:||-----------|
A||:------------------------------------------------------|-----------:||-----------|
E||:------------------------------------------------------|-----------:||-----------|


************************************

| /   slide up

************************************

I just wrote down the tab of this youtube-video: https://www.youtube.com/watch?v=8ghDJs9lXxE

If you have any difficulties at first, just watch it and I hope you enjoy this tab! :)

PS: 
This is my first tab and I know not everything is right, corrections are highly recommended!

            
            
Suggest correction
Creating personal tab
Creating personal tab
You can edit any tab online and save it as your Personal.

You can edit, replace or remove any tab part or add personal notes – all changes will be seen only by you.

Personal tabs can be accessed anytime from any device, even offline.
Learn more »
Give kudos to tab author, rate the tab!
1 2 3 4 5
comments
print report bad tab
guest
You may want to rate the tab now too:
select rating
Wanna post a correction for this tab? Suggest correction