Oops, an error
Loading. Please wait.

Mondo Bongo tab

version 1
version 1

Whole song

61,658 views 63 this week
5 commentsread comments
1 2 3 4 5
x 30
add to favorites
×
Save as Personal and add changes to this tab that will be seen only by you. Learn more ›
×
You can save this tab as Personal to edit and correct it or add notes. All changes will be seen only by you. Learn more »
launch autoscroll
font size
0
reset
how to read this tab
guitar tuner
edit
Autoscroll
slow
fast
+/-
esc
set tempo
stop
Author
Difficulty
Link to official website for Joe Strummer & The Mescaleros: http://www.strummersite.com/

Artist: Joe Strummer & The Mescaleros
Song: Mondo bongo
Album: Global A Go-Go
[" Global A Go-Go " CD]


Tabbed by: Tor Haaberg, Norway
e-mail: tkerkul@hotmail.com


[Intro]

Vocal: There's something there...


e|E----------------7-7-7-7-7--10----------------------------7---------------|
B|--------------------------------7-7-7--10--8-7--5-5-5-5----5--7-7-7-7-----|
G|--------------------------------------------------------------------------|
D|--------------------------------------------------------------------------|
A|--------------------------------------------------------------------------|
E|---SL14/0-----------------------------------------------------------------|

e|E----------------7-7-7-7-7--10--------------------------3-----------------|
B|---------------------------------7-7-7--10--8-7--5-5-5---/7-/3------------|
G|--------------------------------------------------------------------------|
D|--------------------------------------------------------------------------|
A|--------------------------------------------------------------------------|
E|--------------------------------------------------------------------------|


[Verse]


e|E--2-----2------------------------------------------0---------------------|
B|----3-----3----2-----2------0-2-3-2-0-0-----3-3--3------------------------|
G|------4-----4----3-----3--------------------1-1--1------------------------|
D|-------------------4-----4------------------------------------------------|
A|--------------------------------------------------------------------------|
E|--------------------------------------------------------------------------|

e|E--2-----2------------------------------------------0---------------------|
B|----3-----3----2-----2------0-2-3-2-0-0-----3----3------------------------|
G|------4-----4----3-----3--------------------1----1------------------------|
D|-------------------4-----4------------------------------------------------|
A|--------------------------------------------------------------------------|
E|----------------------------------------/3---/5---------------------------|


Song in complete order:

[Intro]
[Verse]
[Intro]
[Verse]
[Intro]
[Verse 1] line x2
[Intro]
[Verse]
[Break]
[Verse 1] line X2
[break with intro/fills]
[Verse]
[Outro] - repeat verse



************************************

| /  Slide up

************************************

            
            
Suggest correction
Creating personal tab
Creating personal tab
You can edit any tab online and save it as your Personal.

You can edit, replace or remove any tab part or add personal notes – all changes will be seen only by you.

Personal tabs can be accessed anytime from any device, even offline.
Learn more »
comments
print report bad tab
5 comments total. Showing first comments.
0 reply
bendystraw 40 Jan 12, 2007 09:35 AM

well,it sounds remotely like the song.

0 reply
offspring_freak 60 Mar 14, 2007 08:13 AM

yep, but its really sweet tune to play.
5 stars.

+3 reply
Eat2Live 10 Jan 15, 2012 08:54 AM

This is how I prefer to play the verse:

-2-0----2-0--------------------------------------0-
-----3------3---2-0----2-----0-2-3-2-0-0--3-3-3----
--------------------3----3----------------1-1-1----
---------------------------4-----------------------
---------------------------------------------------
---------------------------------------------------

guest
You may want to rate the tab now too:
select rating
Wanna post a correction for this tab? Suggest correction