Oops, an error
Loading. Please wait.

Rocky Mountain Way tab

version 3
version 3

Whole song

Interactive

19,955 views 12 this week
2 commentsread comments
1 2 3 4 5
x 6
add to favorites
×
Save as Personal and add changes to this tab that will be seen only by you. Learn more ›
×
You can save this tab as Personal to edit and correct it or add notes. All changes will be seen only by you. Learn more »
launch autoscroll
font size
0
reset
how to read this tab
guitar tuner
backing track
0:00
0:00
edit
Autoscroll
slow
fast
+/-
esc
set tempo
stop
Author
-------------------------------------------------------------------------------
                             Rocky Mountain Way - Joe Walsh
-------------------------------------------------------------------------------
Tabbed by: Chris Jardine (chrismacker)
Email: chrisjardine12@hotmail.com

Tuning: Standard E A D G B e

This is Really Close!

e|---------------------------------------------------------------------------|
B|o----9-9----10-9----------------------------------------------------------o|
G|-----9-9----9--9-----------------------------------------------------------|
D|-----9-9----11-9-----------------------------------------------------------|
A|o-------------------------------------------------------------------------o|
E|-0-------0-------------------------------------------------------------------|
                                          x4

Bar the 5th Fret on  A D G B and e and Bar the 7th Fret on D G and B
e|--5x-5x-5x-5x/-------------------------------------------------------------|
B|o-7x-7x-7x-7x/------------------------------------------------------------o|
G|--7x-7x-7x-7x/-------------------------------------------------------------|
D|--7x-7x-7x-7x/-------------------------------------------------------------|
A|o-5x-5x-5x-5x/0x-0x-0x-0x-------------------------------------------------o|
E|---------------------------------------------------------------------------|
                                          x4
                 x7
e|---------------------------------------------------------------------------|
B|---------------------------------------------------------------------------|
G|----------|o-1-o|----------------------------------------------------------|
D|----------|o-2-o|----------------------------------------------------------|
A|----------|o-2-o|----------------------------------------------------------|
E|-0-5-3-0=====--------------------------------------------------------------|
                                             repeat 4 times

                x?       x?       x?       x?
e|-----------------------------|o-5-o|--|o-7-o|------------------------------|
B|-----------------------------|o-5-o|--|o-7-o|------------------------------|
G|--------------------|o-1-o|--|o-6-o|--|o-8-o|------------------------------|
D|--------------------|o-2-o|--|o-7-o|--|o-9-o|------------------------------|
A|-0-4-5-6-7-|o-7-o|--|o-2-o|--|o-7-o|--|o-9-o|------------------------------|
E|-0-2-3-4-5-|o-5-o|-----------|o-5-o|--|o-7-o|------------------------------|


Bar the 5th Fret on  A D G B and e and Bar the 7th Fret on D G and B
e|--5x-5x-5x-5x/-------------------------------------------------------------|
B|o-7x-7x-7x-7x/------------------------------------------------------------o|
G|--7x-7x-7x-7x/-------------------------------------------------------------|
D|--7x-7x-7x-7x/-------------------------------------------------------------|
A|o-5x-5x-5x-5x/0x-0x-0x-0x-------------------------------------------------o|
E|---------------------------------------------------------------------------|
                                          x4

                 x7
e|---------------------------------------------------------------------------|
B|---------------------------------------------------------------------------|
G|----------|o-1-o|----------------------------------------------------------|
D|----------|o-2-o|----------------------------------------------------------|
A|----------|o-2-o|----------------------------------------------------------|
E|-0-5-3-0=====--------------------------------------------------------------|

                x?       x?       x?       x?
e|-----------------------------|o-5-o|--|o-7-o|------------------------------|
B|-----------------------------|o-5-o|--|o-7-o|------------------------------|
G|--------------------|o-1-o|--|o-6-o|--|o-8-o|------------------------------|
D|--------------------|o-2-o|--|o-7-o|--|o-9-o|------------------------------|
A|-0-4-5-6-7-|o-7-o|--|o-2-o|--|o-7-o|--|o-9-o|------------------------------|
E|-0-2-3-4-5-|o-5-o|-----------|o-5-o|--|o-7-o|------------------------------|

Bar the 5th Fret on  A D G B and e and Bar the 7th Fret on D G and B
e|--5x-5x-5x-5x/-------------------------------------------------------------|
B|o-7x-7x-7x-7x/-------------------------------------------------------------|
G|--7x-7x-7x-7x/-------------------------------------------------------------|
D|--7x-7x-7x-7x/-------------------------------------------------------------|
A|o-5x-5x-5x-5x/0x-0x-0x-0x--------------------------------------------------|
E|---------------------------------------------------------------------------|

e|---------------------------------------------------------------------------|
B|---------------------------------------------------------------------------|
G|---------------------------------------------------------------------------|
D|---------------------------------------------------------------------------|
A|---------------------------------------------------------------------------|
E|-0-5-3-0-------------------------------------------------------------------|

Solo Stuff

Then:

Bar the 5th Fret on  A D G B and e and Bar the 7th Fret on D G and B
e|--5x-5x-5x-5x/-------------------------------------------------------------|
B|o-7x-7x-7x-7x/-------------------------------------------------------------|
G|--7x-7x-7x-7x/-------------------------------------------------------------|
D|--7x-7x-7x-7x/-------------------------------------------------------------|
A|o-5x-5x-5x-5x/0x-0x-0x-0x--------------------------------------------------|
E|---------------------------------------------------------------------------|
                                 Repeat Until Song Ends

Have Fun!

| /  slide up
| \  slide down
| h  hammer-on
| p  pull-off
| ~  vibrato
| +  harmonic
| x  mute note
| =  let ring
| pm palm mute
===============================================================================

            
            
Suggest correction
Creating personal tab
Creating personal tab
You can edit any tab online and save it as your Personal.

You can edit, replace or remove any tab part or add personal notes – all changes will be seen only by you.

Personal tabs can be accessed anytime from any device, even offline.
Learn more »
comments
print report bad tab
2 comments total.
0 reply
CAMARO_68 10 Nov 16, 2006 07:09 AM

Sorry but even me not the best guitarist knows a bad version when I see one and this hardly sounds close, version 2 is the closest.

It's not this for the start either, most of tab is wrong.
e|---------------------------------------------------------------------------|
B|o----9-9----10-9----------------------------------------------------------o|
G|-----9-9----9--9-----------------------------------------------------------|
D|-----9-9----11-9-----------------------------------------------------------|
A|o-------------------------------------------------------------------------o|
E|-0-------0-------------------------------------------------------------------|

0 reply
hellsing666 71 Dec 04, 2006 01:14 PM

the start is right tho i take away that 10 note
its best to look at this and the chords tabs

guest
You may want to rate the tab now too:
select rating
Wanna post a correction for this tab? Suggest correction