Oops, an error
Loading. Please wait.

Light Of The Moon tab

4,684 views 6 this week
2 commentsread comments
1 2 3 4 5
x 4
add to favorites
×
Save as Personal and add changes to this tab that will be seen only by you. Learn more ›
×
You can save this tab as Personal to edit and correct it or add notes. All changes will be seen only by you. Learn more »
launch autoscroll
font size
0
reset
how to read this tab
guitar tuner
edit
Autoscroll
slow
fast
+/-
esc
set tempo
stop
Author
Joel Plaskett - Light of the Moon
Tabbed by: Wil-Man-101 at Ultimate-Guitar
Revised July 2014

The chords are all accurate, but I'm not sure about the tab. I've thrown it in anyway cause it's at least 
halfway there. 

You can optionally play all the C's as C9's, |X32030|, and you can also use a B7 variant, |X21200|, which I 
prefer.

Cmaj7 |X32000|


Intro/verse
   G     B7    C     G     C     G     G     D
e|-------------3---0-------3---0---------------|
B|-----------0---3---0-------3---0-----3-1-0---|
G|-0---0---2-----------2-0---------2-0-0-----2-|
D|---0---1-----------------------------------0-|
A|-------------3-----------3-------------------|
E|-3-----------------3-----------3-------------|


VERSE:
G             B7
In late September
  C                G
I drove across the prairie
  C            G
The mountains behind me
  G              D
And the ocean beyond
     G             B7
This country's a coalmine
     C        G
And I'm a canary
     C         G
Turn out the headlights
        G       D
and the radio on


CHORUS:
G              D
I remember the words
             Em
I forget the tune
                 Cmaj7
The light of the moon
                 G
The light of the moon
G         D
Under the stars,
                Em
you stagger and swoon
                 Cmaj7
The light of the moon
                 G
The light of the moon


VERSE:
G             B7
Sunrise oh sunrise
  C             G
Will you wait for me
  C             G
Don't come too soon
                          D
Through the night's deep abyss
G             B7
Flirt the waitress
   C            G
in Sault Ste Marie
C             G
Hear music and voices
                  D
through static and hiss


CHORUS


Assorted tablature (just to give you some idea of instrumental parts)

Verse end
e|-7-5-3-5-|-5-3-2-2h3-|
B|---------|-----------|
G|---------|-----------|
D|---------|-----------|
A|---------|-----------|
E|---------|-----------|

Outro (on mandolin? or maybe twelve string guitar?)
e|-8888-777-555-7-5-3-5-3-3-0-0--2-2-2-3-5-3-3-3-|
b|-8888-888-555-8-5-3-5-3-3-1-1--3-3-3-5-7-3-3-3-|
g|-----------------------------------------------|
d|-----------------------------------------------|
a|-----------------------------------------------|
E|-----------------------------------------------|


            
            
Suggest correction
Creating personal tab
Creating personal tab
You can edit any tab online and save it as your Personal.

You can edit, replace or remove any tab part or add personal notes – all changes will be seen only by you.

Personal tabs can be accessed anytime from any device, even offline.
Learn more »
comments
print report bad tab
2 comments total.
+1 reply
suburbanshorts 80 Dec 08, 2009 05:57 PM

I think the D on the first Light of the Moon might be a Bm. D sounds a little too bright...

0 reply
Wil-man-101 470 Jul 05, 2014 02:00 PM

I finally figured it out. It's Cmaj7.

guest
You may want to rate the tab now too:
select rating
Wanna post a correction for this tab? Suggest correction