Oops, an error
Loading. Please wait.

Shine On Shine On Shine On Acoustic chords

118 views 1 this week
no commentswrite comment
1 2 3 4 5
3 more votes to show rating
add to favorites
×
Save as Personal and add changes to this tab that will be seen only by you. Learn more ›
×
You can save this tab as Personal to edit and correct it or add notes. All changes will be seen only by you. Learn more »
launch autoscroll
font size
0
reset
transpose
0
reset
simplify chords
display chords
guitar tuner
edit
Autoscroll
slow
fast
+/-
esc
set tempo
stop
Strumming
There is no strumming pattern for this song yet. and get +5 IQ
[Intro]
   G     D7/F#   C       D7/F#
e|------------------------------------|
B|-3------0-1-0--------------1-p-0----|
G|-0----2-------0-0---0--2---------2--|
D|---0--------------4------0----------|
A|--------------3-3---3---------------|
E|-3----2----------------2------------|

   G     D7/F#   C
e|-------------------3--------|
B|-3------0-1-0---------------|
G|-0----2--------0------------|
D|---0-------------2---2------|
A|---------------3------------|
E|-3----2---------------------|

   G     D7/F#   C       D7/F#
e|------------------------------------|
B|-3------0-1-0--------------1-p-0----|
G|-0----2-------0-0---0--2---------2--|
D|---0--------------4------0----------|
A|--------------3-3---3---------------|
E|-3----2----------------2------------|

   Em               C
e|-----------------------3----3-|
B|-0------3--1--0-------------1-|
G|-----0------------0-----------| 
D|---2----------------2----2----|
A|------------------3-----------|
E|-0----------------------------|

   Em               C
e|---------------------------3--|
B|-0------3--1--0-------------1-|
G|-----0----------------0-------| 
D|---2--------------2-----------|
A|------------------3-3---3-----|
E|-0----------------------------|



[Verse 1]
G        D7/F#        Em         C   D7/F# 
I set my sails for the New South Wales
G             D7/F#        C
Trying to get ahead of the sun
G        D7/F#        Em         C   D7/F# 
The day I left for the New South Wales
          Em                                C
You said, “Babe, don’t forget where you’re from.”
           Em                                 C
You said, “Babe, don’t forget where you come from.”
G     D7/F#   C       D7/F#
G     D7/F#   C

[Verse 2]
G            D7/F#        Em            C   D7/F# 
Wading in the water on the Scarborough Beach
G                   D7/F#          C
Taking pictures of my feet in the sand
G                         D7/F#          Em            C   D7/F# 
I should be writing you a letter from the Scarborough beach
          Em                                C
Saying, “Babe, you won’t believe where I am.”
          Em                                C
Saying, “Babe, you won’t believe where I am.”
G     D7/F#   C       D7/F#
G     D7/F#   C

[Verse 3]
G               D7/F#          Em          C   D7/F# 
Stopping on the highway at the side of the road
G                   D7/F#          C
Staring at a whole new set of stars
G           D7/F#     Em          C   D7/F# 
I go where I go and I do what I’m told
          Em                      C
But it’s easy to forget who you are
          Em                      C
But it’s easy to forget who you are

[Bridge]
G     D7/F#        Em     C
Oh,           you read my mind
G        D7/F#        Em        C
Your beauty       can leave me blind
G               D7/F#      Em    C
The truth can be cruel and so unkind
    Bm             C
But I can’t lie to you
    Bm             C
Sometimes I get so blue
    Bm                   C   D         G
I don’t want anything to do   with myself

[Solo]
G     D7/F#   C       D7/F#
G     D7/F#   C
G     D7/F#   C       D7/F#
Em               C
Em               C

[Verse 4]
G        D7/F#          Em          C   D7/F# 
I set my sights on my front porch light
G                   D7/F#              C
Trying to shake this feeling that took hold
G                    D7/F#           Em          C   D7/F# 
Dreaming that you’re leaving on the front porch light
Em                      C
Maybe turning lead into gold
Em                      C
Maybe turning lead into gold

[Outro]
         F      C    F    C    F    C            G
Singing, “Shine on, shine on, shine on traveling light”
F       C     F      C           G     F       C
Sing a song, sing it for all the right reasons tonight
G     D7/F#   C       D7/F#
G     D7/F#   C
G     D7/F#   C       D7/F#
G     C      Em       D7/F#
G     D       C   D    G     

************************************

| p   Pull-off

************************************

            
            
Suggest correction
Creating personal tab
Creating personal tab
You can edit any tab online and save it as your Personal.

You can edit, replace or remove any tab part or add personal notes – all changes will be seen only by you.

Personal tabs can be accessed anytime from any device, even offline.
Learn more »
Give kudos to tab author, rate the tab!
1 2 3 4 5
comments
print report bad tab
guest
You may want to rate the tab now too:
select rating
Wanna post a correction for this tab? Suggest correction