Oops, an error
Loading. Please wait.

Time Flies tab

55 views 1 this week
1 commentread comment
1 2 3 4 5
2 more votes to show rating
add to favorites
×
Save as Personal and add changes to this tab that will be seen only by you. Learn more ›
×
You can save this tab as Personal to edit and correct it or add notes. All changes will be seen only by you. Learn more »
launch autoscroll
font size
0
reset
how to read this tab
guitar tuner
edit
Autoscroll
slow
fast
+/-
esc
set tempo
stop
Tuning DADGBE  

[Chords]
Aadd9 777600
F#m11 444200

[Intro]
e|--0-0----------|---------0-|---------------2---------------------|
B|--2-2----------|---------2-|---------------3---------------------|
G|--2-2----------|-2-------2-|-----------2---2---------------------|
D|--2-2--4/6/4/0-|-4-------2-|--4/6/4/0--4---0---------------------|
A|--0-0--2/4/2/0-|-4-------0-|--2/4/2/0--4---0---------------------|
D|---------------|-4--0-2----|-----------4---0---------------------|

[Verse 1]
e|--0-0----------|---------0-|---------------2---------------------|
B|--2-2----------|---------2-|---------------3---------------------|
G|--2-2----------|-2-------2-|-----------2---2---------------------|
D|--2-2--4/6/4/0-|-4-------2-|--4/6/4/0--4---0---------------------|
A|--0-0--2/4/2/0-|-4-------0-|--2/4/2/0--4---0---------------------|
D|---------------|-4--0-2----|-----------4---0---------------------|

Time flies, it’s moving fast
Shanghai’d into the past

e|--0-0----------|---------0-|---------------2---------------------|
B|--2-2----------|---------2-|---------------3---------------------|
G|--2-2----------|-2-------2-|-----------2---2---------------------|
D|--2-2--4/6/4/0-|-4-------2-|--4/6/4/0--4---0---------------------|
A|--0-0--2/4/2/0-|-4-------0-|--2/4/2/0--4---0---------------------|
D|---------------|-4--0-2----|-----------4---0---------------------|

One look, into the looking glass
There is no turning back

[Verse 2]
e|--0-0----------|---------0-|---------------2---------------------|
B|--2-2----------|---------2-|---------------3---------------------|
G|--2-2----------|-2-------2-|-----------2---2---------------------|
D|--2-2--4/6/4/0-|-4-------2-|--4/6/4/0--4---0---------------------|
A|--0-0--2/4/2/0-|-4-------0-|--2/4/2/0--4---0---------------------|
D|---------------|-4--0-2----|-----------4---0---------------------|

Look now you’re losing power
All the money in the bank couldn’t buy you another hour

e|--0-0----------|---------0-|---------------2---------------------|
B|--2-2----------|---------2-|---------------3---------------------|
G|--2-2----------|-2-------2-|-----------2---2---------------------|
D|--2-2--4/6/4/0-|-4-------2-|--4/6/4/0--4---0---------------------|
A|--0-0--2/4/2/0-|-4-------0-|--2/4/2/0--4---0---------------------|
D|---------------|-4--0-2----|-----------4---0---------------------|

If we watch, you will devour
Everything in your path

[Pre-Chorus]
Aadd9
Now you want us all to reminisce
F#m11
Of a time that did not exist
Aadd9
Fat cats in a thin disguise
F#m11
Staring straight into your X-Ray eyes
Aadd9
All your calls have been returned
F#m11
While we were walking ‘cross the bridge you burned
 
[Chorus]
e|--5-5-5-5-5-5-5-5-|-5-5-5-5-5-5-5-5-|-0-------5------------------|
B|--7-7-7-7-7-7-7-5-|-7-7-7-7-7-7-7-5-|-5-----9-7------------------|
G|--7-7-7-7-7-7-7-6-|-7-7-7-7-7-7-7-6-|-6-------7------------------|
D|--0-0-0-0-0-0-0-0-|-0-0-0-0-0-0-0-0-|-7--7/9--0------------------|
A|--0-0-0-0-0-0-0-0-|-0-0-0-0-0-0-0-0-|-0-------0------------------|
D|--0-0-0-0-0-0-0-0-|-0-0-0-0-0-0-0-0-|---------0------------------|

Do you really wanna read my, do you really wanna read my mind?

e|--5-5-5-5-5-5-5-5-|-5-5-5-5-5-5-5-5-|-0-------5------------------|
B|--7-7-7-7-7-7-7-5-|-7-7-7-7-7-7-7-5-|-5-----9-7------------------|
G|--7-7-7-7-7-7-7-6-|-7-7-7-7-7-7-7-6-|-6-------7------------------|
D|--0-0-0-0-0-0-0-0-|-0-0-0-0-0-0-0-0-|-7--7/9--0------------------|
A|--0-0-0-0-0-0-0-0-|-0-0-0-0-0-0-0-0-|-0-------0------------------|
D|--0-0-0-0-0-0-0-0-|-0-0-0-0-0-0-0-0-|---------0------------------|

Oh, my memory’s gonna strike you, yeah, my memory’s gonna strike you blind

e|--5-5-5-5-5-5-5-5-|-5-5-5-5-5-5-5-5-|-0-------5------------------|
B|--7-7-7-7-7-7-7-5-|-7-7-7-7-7-7-7-5-|-5-----9-7------------------|
G|--7-7-7-7-7-7-7-6-|-7-7-7-7-7-7-7-6-|-6-------7------------------|
D|--0-0-0-0-0-0-0-0-|-0-0-0-0-0-0-0-0-|-7--7/9--0------------------|
A|--0-0-0-0-0-0-0-0-|-0-0-0-0-0-0-0-0-|-0-------0------------------|
D|--0-0-0-0-0-0-0-0-|-0-0-0-0-0-0-0-0-|---------0------------------|

Do you really wanna close your, do you really wanna close your eyes?

F#m11
Eyes …

e|-5--5----------------------------------------------------------|
B|-7-7-7---------------------------------------------------------|
G|-7----6----4---------------------------------------------------|
D|-0-----7-2-----------------------------------------------------|
A|-0-------------------------------------------------------------|
D|-0-------------------------------------------------------------|

Oh, time flies

[Verse 3]
e|--0-0----------|---------0-|---------------2---------------------|
B|--2-2----------|---------2-|---------------3---------------------|
G|--2-2----------|-2-------2-|-----------2---2---------------------|
D|--2-2--4/6/4/0-|-4-------2-|--4/6/4/0--4---0---------------------|
A|--0-0--2/4/2/0-|-4-------0-|--2/4/2/0--4---0---------------------|
D|---------------|-4--0-2----|-----------4---0---------------------|

Time flies, and then just stands still
You’ll need one cheaper thrill

e|--0-0----------|---------0-|---------------2---------------------|
B|--2-2----------|---------2-|---------------3---------------------|
G|--2-2----------|-2-------2-|-----------2---2---------------------|
D|--2-2--4/6/4/0-|-4-------2-|--4/6/4/0--4---0---------------------|
A|--0-0--2/4/2/0-|-4-------0-|--2/4/2/0--4---0---------------------|
D|---------------|-4--0-2----|-----------4---0---------------------|

Until you find another way to kill
Everything in your path

[Pre-Chorus]
Aadd9
Now you want us all to sing along
F#m11
To the only Carly Simon song
Aadd9
Staring straight into the vanity
F#m11
Beyond the valley of your sanity
Aadd9
All your dolls have come and gone
F#m11
Where were you when the lights came on?

[Solo]
(Riff 4)(2x)
e|--5-5-5-5-5-5-5-5-|-7-7-7-7-7-7-7-5-|-0--------------------------|
B|--7-7-7-7-7-7-7-5-|-7-7-7-7-7-7-7-5-|-0--------------------------|
G|--7-7-7-7-7-7-7-6-|-7-7-7-7-7-7-7-6-|-2--------------------------|
D|--0-0-0-0-0-0-0-0-|-0-0-0-0-0-0-0-0-|-4--------------------------|
A|--0-0-0-0-0-0-0-0-|-0-0-0-0-0-0-0-0-|-4--------------------------|
D|--0-0-0-0-0-0-0-0-|-0-0-0-0-0-0-0-0-|-4--------------------------|

C#m7  Bm7

[Chorus]
e|--5-5-5-5-5-5-5-5-|-5-5-5-5-5-5-5-5-|-0-------5------------------|
B|--7-7-7-7-7-7-7-5-|-7-7-7-7-7-7-7-5-|-5-----9-7------------------|
G|--7-7-7-7-7-7-7-6-|-7-7-7-7-7-7-7-6-|-6-------7------------------|
D|--0-0-0-0-0-0-0-0-|-0-0-0-0-0-0-0-0-|-7--7/9--0------------------|
A|--0-0-0-0-0-0-0-0-|-0-0-0-0-0-0-0-0-|-0-------0------------------|
D|--0-0-0-0-0-0-0-0-|-0-0-0-0-0-0-0-0-|---------0------------------|

Do you really wanna read my, do you really wanna read my mind?

e|--5-5-5-5-5-5-5-5-|-5-5-5-5-5-5-5-5-|-0-------5------------------|
B|--7-7-7-7-7-7-7-5-|-7-7-7-7-7-7-7-5-|-5-----9-7------------------|
G|--7-7-7-7-7-7-7-6-|-7-7-7-7-7-7-7-6-|-6-------7------------------|
D|--0-0-0-0-0-0-0-0-|-0-0-0-0-0-0-0-0-|-7--7/9--0------------------|
A|--0-0-0-0-0-0-0-0-|-0-0-0-0-0-0-0-0-|-0-------0------------------|
D|--0-0-0-0-0-0-0-0-|-0-0-0-0-0-0-0-0-|---------0------------------|

Oh, my memory’s gonna strike you, yeah, my memory’s gonna strike you blind

e|--5-5-5-5-5-5-5-5-|-5-5-5-5-5-5-5-5-|-0-------5------------------|
B|--7-7-7-7-7-7-7-5-|-7-7-7-7-7-7-7-5-|-5-----9-7------------------|
G|--7-7-7-7-7-7-7-6-|-7-7-7-7-7-7-7-6-|-6-------7------------------|
D|--0-0-0-0-0-0-0-0-|-0-0-0-0-0-0-0-0-|-7--7/9--0------------------|
A|--0-0-0-0-0-0-0-0-|-0-0-0-0-0-0-0-0-|-0-------0------------------|
D|--0-0-0-0-0-0-0-0-|-0-0-0-0-0-0-0-0-|---------0------------------|

Do you really wanna close your, do you really wanna close your eyes?

F#m11
Eyes …

e|-5--5----------------------------------------------------------|
B|-7-7-7---------------------------------------------------------|
G|-7----6----4---------------------------------------------------|
D|-0-----7-2-----------------------------------------------------|
A|-0-------------------------------------------------------------|
D|-0-------------------------------------------------------------|

Oh, time flies



************************************

| /  Slide up

************************************

            
            
Suggest correction
Creating personal tab
Creating personal tab
You can edit any tab online and save it as your Personal.

You can edit, replace or remove any tab part or add personal notes – all changes will be seen only by you.

Personal tabs can be accessed anytime from any device, even offline.
Learn more »
Give kudos to tab author, rate the tab!
1 2 3 4 5
comments
print report bad tab
1 comment total.
0 reply
Wil-man-101 470 May 24, 2017 12:53 PM

If you just want to play chords on the verses, these mostly work:
A Bm
Time flies
F#m D
it’s moving fast

guest
You may want to rate the tab now too:
select rating
Wanna post a correction for this tab? Suggest correction