Oops, an error
Loading. Please wait.

Cello Suite No 1 - Prelude tab

version 1
version 1

Whole song

  • Actually in G, standard tuning, optimized for steel string acoustic or electric.
  • Transcribed from source material, useable with aco... Show more

Interactive

567,347 views 1,387 this week
16 commentsread comments
1 2 3 4 5
x 213
add to favorites
×
Save as Personal and add changes to this tab that will be seen only by you. Learn more ›
×
You can save this tab as Personal to edit and correct it or add notes. All changes will be seen only by you. Learn more »
launch autoscroll
font size
0
reset
how to read this tab
guitar tuner
edit
Autoscroll
slow
fast
+/-
esc
set tempo
stop
Since this song is written for cello, some of the notes were too low to play on guitar, 
I put them an octave up to keep it in the original key.

Cello Suite No. 1 - Prelude
Johann Sebastian Bach
4/4
Key: G Major


   |       |       |       |         |       |       |       |
e|---------------------------------|---------------------------------|
B|-----0---0---0-------0---0---0---|-----1-0-1---1-------1-0-1---1---|
G|-------2---------------2---------|---------------------------------|
D|---0-------0---0---0-------0---0-|---2-------2---2---2-------2---2-|
A|---------------------------------|---------------------------------|
E|-3---------------3---------------|-3---------------3---------------|


   |       |       |       |         |       |       |       |
e|---------------------------------|---------------------------------|
B|-----1-0-1---1-------1-0-1---1---|---------0---0-----------0---0---|
G|---------------------------------|---0-2-0---0---0---0-2-0---0-----|
D|---4-------4---4---4-------4---4-|-------------------------------4-|
A|---------------------------------|---------------------------------|
E|-3---------------3---------------|-3---------------3---------------|


   |       |       |       |         |       |       |       |
e|---------------------------------|---------------------------------|
B|-----0---0-----------------------|---------------------------------|
G|-------2---0---0---0---0---------|---0-2-0-2-0-2-0---0-2-0-2-0-2-0-|
D|---2---------4---2---4-----0-----|---------------------------------|
A|-------------------------2---4-2-|-4---------------4---------------|
E|-3-------------------------------|---------------------------------|


   |       |       |       |         |       |       |       |
e|---------------------------------|---------------------------------|
B|-----3-2-3-----------------------|---------------------------------|
G|---2-------2-0-2---2-0-2---------|-----0---0---0-------0---0---0---|
D|-4---------------4-------0-4-2-0-|-------4---------------4---------|
A|---------------------------------|---2-------2---2---2-------2---2-|
E|---------------------------------|-0---------------0---------------|


   |       |       |       |         |       |       |       |
e|---------------------------------|---------------------------------|
B|-----------------------3-2-0-----|-------3---3---------------------|
G|-----------------0-----------2-0-|---------2-----2-------2-0-------|
D|-----0-2-0---------4-2-----------|-4-2-0-------4---0-2-4-----4-2-0-|
A|---4-------4-2-0-----------------|---------------------------------|
E|-0-------------------------------|---------------------------------|


   |       |       |       |         |       |       |       |
e|---------------------------------|---------------------------------|
B|---------------------------------|-------0-1-------------0-1-------|
G|-1-----------1---4-----------1---|-----2-----2---------2-----2-----|
D|---0-3-2-3-0---0---0-3-2-3-0---0-|---2---------2-0---2---------5-2-|
A|---------------------------------|-3---------------3---------------|
E|---------------------------------|---------------------------------|


   |       |       |       |         |       |       |       |
e|---------------------------------|---------------------------------|
B|---------------------------------|---------------------------------|
G|---------2---2-----------2---2---|-0-----0---0-2---0---------------|
D|-1-4-1-4---4---4-1-4-1-4---4---4-|---4-2---4-----4---4-2-0---------|
A|---------------------------------|-------------------------3-2-0---|
E|---------------------------------|-------------------------------3-|


   |       |       |       |         |       |       |       |
e|---------------------------------|---------------------------------|
B|---------------------------------|---------------------------------|
G|---------------------------------|---------------------------------|
D|-----0---0---0-------0---0---0---|-----3-2-3---3-------3-2-3---3---|
A|---3---3---3---3---3---3---3---3-|---2-------2---2---2-------2---2-|
E|-2---------------2---------------|-3---------------3---------------|


   |       |       |       |         |       |       |       |
e|---------------------------------|---------------------------------|
B|---------------------------------|-------0---------------0---------|
G|---------------------------------|-----5---5---5-------5---5---5---|
D|-----2-0-2---2-------2-0-2---2---|---4-------4---4---4-------4---4-|
A|---3-------3---3---3-------3---3-|---------------------------------|
E|-3---------------3---------------|-3---------------3---------------|


   |       |       |       |         |       |       |       |
e|---------------------------------|---------------------------------|
B|-----0---0-----------------------|---------------------------------|
G|-------2---0---------------------|---------0-----0---------0-----0-|
D|-------------4-2-0-------------0-|-----2-4---2-4-------2-4---2-4---|
A|---5---------------3-2-0---------|-3-0-------------3-0-------------|
E|-3-----------------------3-2-0---|---------------------------------|


   |       |       |       |         |       |       |       |
e|---------------------------------|---------------------------------|
B|---------------------------------|---------0-2-3~~~~---------------|
G|---------------------------------|-------------------------------0-|
D|-----0-2-4-0-2-4-----0-2-4-0-2-4-|-----0-4-----------------0-2-4---|
A|-4-0-------------4-0-------------|-4-0---------------0-2-3---------|
E|---------------------------------|---------------------------------|


   |       |       |       |         |       |       |       |
e|---------------------------------|---------------------------------|
B|---------------0-1---------0-1-3-|-4-3-2-3-3-1-0-1-1---------------|
G|-2---------0-2-----2---0-2-------|-------------------2-------------|
D|---4-0-2-4-----------4-----------|---------------------4-2-0-------|
A|---------------------------------|---------------------------0-2-3-|
E|---------------------------------|---------------------------------|


   |       |       |       |         |       |       |       |
e|---------------------------------|---------------------------------|
B|-----------0-1---0---------------|-------------0---2---------------|
G|---------2-----2---0-------------|---------0-2---0---3-2-3-3-2-1-3-|
D|-0---0-4-------------0-----------|-0-----0-------------------------|
A|---0-------------------3-2---0-2-|-----2---------------------------|
E|---------------------------3-----|---3-----------------------------|


   |       |       |       |         |       |       |       |
e|---------------------------------|---------------------------------|
B|---------------------------2-3-2-|-3-------------------------------|
G|-2-0---0-0-------------0-2-------|---2-------2---------------------|
D|-----4-----2---------2-----------|-----4-2-4---0-4---0-------------|
A|-------------4-2-0-4-------------|-----------------0---4-2-0-------|
E|---------------------------------|---------------------------3-2-0-|


   |       |       |       |         |       |       |       |
e|---------------------------------|---------------------------------|
B|-----1-0-----------1-0-----------|---0-----------------------------|
G|---------2-0-----------2-0-------|-----2-0-----------2-0-----------|
D|-0~~~--------4-2-0---------4-2-0-|---------4-2-0---------4-2-0-----|
A|---------------------------------|-3-------------3-2-----------3-2-|
E|---------------------------------|---------------------------------|

   |       |       |       |         |       |       |       |
e|---------------------------------|---------------------------------|
B|---------------------------------|---------------------------------|
G|---0-------2---2---2---2-0-2---2-|---2---2-0-2---2---2---2-0-2---2-|
D|-----4-2-4---0---2---4-------2---|-4---0-------2---4---0-------2---|
A|-0-------------------------------|---------------------------------|
E|---------------------------------|---------------------------------|


   |       |       |       |         |       |       |       |
e|---------------------------------|---------------------------------|
B|-------------------------0-------|-----0---1-------0---1---3---0---|
G|---2---2---2---2-0-2-2-2---2---2-|-2-2---2---2---2---2---2---2---2-|
D|-4---0---2---4---------------0---|-------------0-------------------|
A|---------------------------------|---------------------------------|
E|---------------------------------|---------------------------------|


   |       |       |       |         |       |       |       |
e|---------------------------------|---------------------------------|
B|-1---0---1-------0-------0-------|---------------------------------|
G|---2---2---2-2-2---2-2-2---2-0-2-|-2-2-0-2-2-2---2-0-2---2-0-2---2-|
D|---------------------------------|-------------4-------4-------2---|
A|---------------------------------|---------------------------------|
E|---------------------------------|---------------------------------|


   |       |       |       |         |       |       |       |
e|---------------------------------|---------------------0---1---2---|
B|---------------------------------|-0---1---2---3---4---------------|
G|---2-------------0---1---2---3---|---------------------------------|
D|-4---0-2-3-0-4-0---0---0---0---0-|---0---0---0---0---0---0---0---0-|
A|---------------------------------|---------------------------------|
E|---------------------------------|---------------------------------|


   |       |       |       |         |       |       |       |
e|-3-------3---3---3-------3---3---|-3-------3---3---3-------3---3---|
B|---0---0---0---0---0---0---0---0-|---------------------------------|
G|---------------------------------|---2---2---2---2---2---2---2---2-|
D|-----0---------------0-----------|-----0---------------0-----------|
A|---------------------------------|---------------------------------|
E|---------------------------------|---------------------------------|


   |       |       |       |         |       |       |       |
e|-2-------2---2---2-------2---2---|-3~~~~~~~~~~~~~~~~~~~~~~~~~~~~~~-|
B|---1---1---1---1---1---1---1---1-|-0~~~~~~~~~~~~~~~~~~~~~~~~~~~~~~-|
G|---------------------------------|---------------------------------|
D|-----0---------------0-----------|---------------------------------|
A|---------------------------------|---------------------------------|
E|---------------------------------|-3~~~~~~~~~~~~~~~~~~~~~~~~~~~~~~-|

            
            
Suggest correction
Creating personal tab
Creating personal tab
You can edit any tab online and save it as your Personal.

You can edit, replace or remove any tab part or add personal notes – all changes will be seen only by you.

Personal tabs can be accessed anytime from any device, even offline.
Learn more »
comments
print report bad tab
16 comments total. Showing first comments.
+3 reply
D&DLover 94 Oct 29, 2009 05:51 PM

Excellent tab. Thanks a lot!

+5 reply
Aidenfan4eva 51 Nov 03, 2009 03:26 AM

just thought id add... i took your tab and tabbed it into guitar pro, is it okay with you if i post it to this site, giving you credit for the original?

+1 reply
kenny102 10 Dec 12, 2009 04:00 PM

omfgzzz dude!!!! i've been lookin for this song for a month!i LOVE it!! at first i couldn't find the name of it, but finally i did (obviously)and i thought well no one would tab this! but you did, and you rock man!!! two thumbs up into tha sky!

guest
You may want to rate the tab now too:
select rating
Wanna post a correction for this tab? Suggest correction