Oops, an error
Loading. Please wait.

Toccata And Fugue In D Minor tab

version 4
version 4

Whole song

86,904 views 12 this week
5 commentsread comments
1 2 3 4 5
x 28
add to favorites
×
Save as Personal and add changes to this tab that will be seen only by you. Learn more ›
×
You can save this tab as Personal to edit and correct it or add notes. All changes will be seen only by you. Learn more »
launch autoscroll
font size
0
reset
how to read this tab
guitar tuner
edit
Autoscroll
slow
fast
+/-
esc
set tempo
stop
Author
I've seen this song tabbed in a few different ways - i think it sounds better like this

The Toccata part in J.S. Bach's "Toccata and Fugue in D minor

e||--16-14-16--14----------------------|----------------------------|
B||----------------17--16--14--13--14--|--10-8-10-------------------|
G||--13--------------------------------|-----------9----10--6--7----|
D||------------------------------------|--7-------------------------|
A||------------------------------------|----------------------------|
E||------------------------------------|----------------------------|

e|---------------------------|-------------------0----|
B|---------------------------|----------------2-------|
G|---------------------------|-------------3----------|
D|--7-5-7--5-----------------|--0------2-5------------|
A|--0---------8--7--5--4--5--|-------4----------------|
E|---------------------------|------------------------|

e|--3--------0----2----|------------------------------------------|
B|--3-------------3----|------------------------------------------|
G|--2-------------2----|------------------------------------------|
D|---------------------|--11-12-14-11-12-14-11-12-14-11-12-14-----|
A|---------------------|------------------------------------------|
E|---------------------|------------------------------------------|

e|--------------------------------------|
B|--------------------------------------|
G|--9-10-12-9-10-12-9-10-12-9-10-12-----|
D|--------------------------------------|
A|--------------------------------------|
E|--------------------------------------|

e|----------------------------------------|
B|--10-11-8-10-11-8-10-11-8-10-11-8-10----|
G|----------------------------------------|
D|----------------------------------------|
A|----------------------------------------|
E|----------------------------------------|

e|------------------------------------------|
B|--14-15-17-14-15-17-14-15-17-14-15-17-----|
G|------------------------------------------|
D|------------------------------------------|
A|------------------------------------------|
E|------------------------------------------|

e|--12-13-15-12-13-15-12-13-15-12-13-15-----|
B|------------------------------------------|
G|------------------------------------------|
D|------------------------------------------|
A|------------------------------------------|
E|------------------------------------------|

e|--17-18-15-17-18-15-17-18-15-17-18-15-17----|
B|--------------------------------------------|
G|--------------------------------------------|
D|--------------------------------------------|
A|--------------------------------------------|
E|--------------------------------------------|

e|--17-15-18----15-18----13-17----13-17----12-15----|
B|-----------17-------17-------15-------15-------13-|
G|--------------------------------------------------|
D|--------------------------------------------------|
A|--------------------------------------------------|
E|--------------------------------------------------|

e|--12-15----10-14----10-14----9-12----9-12----7-|
B|--------13-------12-------12------10------10---|
G|-----------------------------------------------|
D|-----------------------------------------------|
A|-----------------------------------------------|
E|-----------------------------------------------|

e|--10---7-10---5-9---5-9---4-7---4-7-|----2-5---2-5---0-3---0-3-------|
B|-----9------9-----7-----7-----5-----|--5-----3-----3-----2-----2-3---|
G|------------------------------------|--------------------------------|
D|------------------------------------|----------------------------0---|
A|------------------------------------|--------------------------------|
E|------------------------------------|--------------------------------|
                                                        (trill)
e|-----------------5----|------------------------------------1--|
B|------------8---------|--10p8p6---------------5-8-6tr(8)-5-3--|
G|--6----9--------------|---------9p7p6---6---6--------------2--|
D|----------------------|---------------9---7----------------0--|
A|----------------------|---------------------------------------|
E|----------------------|---------------------------------------|

e|--5-10t5-12t5-13t5-10t5-12t5-13t5-15t5-12t|
B|------------------------------------------|
G|------------------------------------------|
D|------------------------------------------|
A|------------------------------------------|
E|------------------------------------------|

e|--5-13t5-15t5-17t5-13t5-15t5-17t5-18t5-15t|
B|------------------------------------------|
G|------------------------------------------|
D|------------------------------------------|
A|------------------------------------------|
E|------------------------------------------|

e|--5-17t5-13t5-15t5-12t5-13t5-10t5-12t5-9t|
B|-----------------------------------------|
G|-----------------------------------------|
D|-----------------------------------------|
A|-----------------------------------------|
E|-----------------------------------------|

e|--5-10t5-----------------------------------|
B|-------------------------------------------|
G|---------2-14t2-15t2-12t2-14t2-10t2-12t2-9t|
D|-------------------------------------------|
A|-------------------------------------------|
E|-------------------------------------------|

e|-------------------------------------|
B|-------------------------------------|
G|--2-10t2-7t2-12t2-9t2-10t2-7t2-9t2-6t|
D|-------------------------------------|
A|-------------------------------------|
E|-------------------------------------|

e|---------------------------------------|
B|---------------------------------------|
G|--2-7t---------------------------------|
D|---------------------------------------|
A|------0-12t0-13t0-10t0-12t0-8t0-10t0-7t|
E|---------------------------------------|

e|-----------------------------------|--------------------|
B|-----------------------------------|--------------------|
G|-----------------------------------|--------------------|
D|-----------------------------------|--------------------|
A|--0-8t0-5t0-10t0-7t0-8t0-5t0-7t0-4-|--0--------5t-------|
E|-----------------------------------|--------------------|

e||------13-18p13----12-17p12----10-15p10-------10-15-|
B||---15----------13----------11-------------12-------|
G||*--------------------------------------12----------|
D||*--------------------------------------------------|
A||---------------------------------------------------|
E||---------------------------------------------------|

e|-----6-----5-----3--------||------------------------------------|
B|-----6-----5-----3--------||--10-10p8p6---------------------6h8h|
G|--------------------2----*||------------9p7p6---6-----6h7h9-----|
D|--------------------2----*||------------------9---7h9-----------|
A|--5-----3-----1-----0-----||------------------------------------|
E|--------------------------||------------------------------------|

e|-------------5-9h10---------|--------------------15-17-18--------|
B|--10p8p6---6----------------|-----------15-17-18-----------------|
G|---------7------------------|--14-16-18--------------------------|
D|----------------------------|------------------------------------|
A|----------------------------|------------------------------------|
E|----------------------------|------------------------------------|

e|-----6-----5-----3-------|
B|-----6-----5-----3-------|
G|--------------------2----|
D|--------------------2----|
A|--5-----3-----1-----0----|
E|-------------------------|

e|-----13-18p13----12-17p12----10-15p10-------10-15-|
B|--15----------13----------11-------------12-------|
G|--------------------------------------12----------|
D|--------------------------------------------------|
A|--------------------------------------------------|
E|--------------------------------------------------|

e|-----6-----5-----3-------|--------------------|
B|-----6-----5-----3-------|--3--------5--------|
G|--------------------2----|--1--------6--------|
D|--------------------2----|--3--------7--------|
A|--5-----3-----1-----0----|--2--------7--------|
E|-------------------------|-----------5--------|

e|--------------15----18p17p15----------------|
B|-----------17----------------18p17h18p17p15-|
G|--16h14-18----------------------------------|
D|--------------------------------------------|
A|--------------------------------------------|
E|--------------------------------------------|

e|--------------------------------------------|
B|-----------------------------------14h17----|
G|--17p15p14----------------------15----------|
D|-----------17p15p14-------14h17-------------|
A|--------------------17p16-------------------|
E|--------------------------------------------|

e|--------------------------------------------------|
B|--------------------------------------------------|
G|--17t14p11h14p11h14-17t14p11h14p11h14-17t14p11h14p|
D|--------------------------------------------------|
A|--------------------------------------------------|
E|--------------------------------------------------|

e|------------------------------------------------|
B|------------------------------------------------|
G|--11h14-17t14p11h14p11h14-15t12p9h12p9h12-15t12p|
D|------------------------------------------------|
A|------------------------------------------------|
E|------------------------------------------------|

e|--------------------------------------------|
B|--------------------------------------------|
G|--9h12p9h12-15t12p9h12p9h12-15t12p9h12p9h12-|
D|--------------------------------------------|
A|--------------------------------------------|
E|--------------------------------------------|

e|---------------------------------------------|
B|---------------------------------------------|
G|---------------------------------------------|
D|--14t11p8h11p8h11-14t11p8h11p8h11-14t11p8h11p|
A|---------------------------------------------|
E|---------------------------------------------|

e|-----------------------------------------------|
B|-----------------------------------------------|
G|-----------------------------------------------|
D|--8h11-14t11p8h11p8h11-17t14p11h14p11h14-17t14p|
A|-----------------------------------------------|
E|-----------------------------------------------|

e|--------------------------------------------------|
B|--------------------------------------------------|
G|--------------------------------12h15p12h15p12h15-|
D|--11h14p11h14-17t14p11h14p11h14-------------------|
A|--------------------------------------------------|
E|--------------------------------------------------|

 E|--------------------------------------------------|
 B|--------------------------------------------------|
 G|--12h15p12h15p12h15p18h15p18h21p18h21p18h21p18h21p|
 D|--------------------------------------------------|
 A|--------------------------------------------------|
 E|--------------------------------------------------|

e|--------------------------|
B|--------------------------|
G|--18h21p18h21~~-----------|
D|--------------------------|
A|--------------------------|
E|--------------------------|

e|-----------------12-17-----------------12-17--|
B|--------------14--------------------15--------|
G|-----------14--------------------14-----------|
D|-----10-14-----------------12-15--------------|
A|--12--------------------12--------------------|
E|----------------------------------------------|

e|----------------10-15----------------------|-----12-15--------------|
B|-------------11----------------------------|--14--------------------|
G|----------12----------------------------12-|------------------------|
D|-----8-12-------------------------10-14----|------------------------|
A|--10-------------------12--10--12----------|------------------------|
E|-------------------------------------------|------------------------|

e|--------------------------|----------------------|
B|--------------------------|----------------------|
G|--------------------------|----------------------|
D|--------------------------|----------------------|
A|--7--8--5--7--4--5--2--4--|----------------------|
E|--------------------------|--5--6--4--5----------|

e|-------1------0---3-3-1-0-1----||
B|--5----3--------2---3----------||
G|--2----2------------2----------||
D|--2----0----0-------0----------||
A|--0----------------------------||
E|-------------------------------||

Now the Fugue

e||-------------------------------|
B||-------------------------------|
G||-----------14t12-14t10-14t9-14t|
D||-------------------------------|
A||-------------------------------|
E||-------------------------------|

e|-------------------------------------------|
B|-------------------------------------------|
G|--7-14t6-14t7-14t9-14t10-14t2-14t4-14t6-14t|
D|-------------------------------------------|
A|-------------------------------------------|
E|-------------------------------------------|

e|----------------------------------------------|
B|-------------------------15t13-15t11-15t10-15t|
G|--7-14t6-14t7-14t9-14t10----------------------|
D|----------------------------------------------|
A|----------------------------------------------|
E|----------------------------------------------|

e|---------------------------------------------|
B|--8-15t7-15t8-15t10-15t11-15t3-15t5-15t7-15t-|
G|---------------------------------------------|
D|---------------------------------------------|
A|---------------------------------------------|
E|---------------------------------------------|

e|-------------------------------------------|
B|--8-15t7-15t8-15t10-15t11-8-15t8-11-8-15t8-|
G|-------------------------------------------|
D|-------------------------------------------|
A|-------------------------------------------|
E|-------------------------------------------|

e|----------------------------------------|
B|--16t4-8-4-16t4-8-4-13t6-10-6-13t6-10-6-|
G|----------------------------------------|
D|----------------------------------------|
A|----------------------------------------|
E|----------------------------------------|

e|--------------------------------------|
B|--15t3-6-3-15t3-6-3-11t5-8-5-11t5-8-5-|
G|--------------------------------------|
D|--------------------------------------|
A|--------------------------------------|
E|--------------------------------------|

e|--------------------------------------|
B|--14t2-5-2-14t2-5-2-10t3-6-3-10t3-6-3-|
G|--------------------------------------|
D|--------------------------------------|
A|--------------------------------------|
E|--------------------------------------|

e|--------------------------------------|
B|--------------------------------------|
G|--12t3-6-3-12t3-6-3-10t2-7-2-10t2-7-2-|
D|--------------------------------------|
A|--------------------------------------|
E|--------------------------------------|

e|--------------------17t15-17t13-17t12-17t-|
B|------------------------------------------|
G|--9t0-3-0-9t0-3-0-2-----------------------|
D|------------------------------------------|
A|------------------------------------------|
E|------------------------------------------|

e|--10-17t9-17t10-17t12-17t13-17t5-17t7-17t9-17t-|
B|-----------------------------------------------|
G|-----------------------------------------------|
D|-----------------------------------------------|
A|-----------------------------------------------|
E|-----------------------------------------------|

e|--10-17t9-17t10-17t12-17t13-17t12-17t10-17t8-17t-|
B|-------------------------------------------------|
G|-------------------------------------------------|
D|-------------------------------------------------|
A|-------------------------------------------------|
E|-------------------------------------------------|

e|--6-17t8-17t10-15t6-15t12-15t10-15t8-15t6-15t-|
B|----------------------------------------------|
G|----------------------------------------------|
D|----------------------------------------------|
A|----------------------------------------------|
E|----------------------------------------------|

e|--5-15t6-15t8-13t5-13t10-13t8-13t6-13t5-13t-|
B|--------------------------------------------|
G|--------------------------------------------|
D|--------------------------------------------|
A|--------------------------------------------|
E|--------------------------------------------|

e|--3-13t5-13t6---------------------------------|
B|--------------17t8-17t14-17t11-17t10-17t8-17t-|
G|----------------------------------------------|
D|----------------------------------------------|
A|----------------------------------------------|
E|----------------------------------------------|

e|---------------------------------------------|
B|--6-17t8-17t10-15t6-15t10-15t8-15t6-15t5-15t-|
G|---------------------------------------------|
D|---------------------------------------------|
A|---------------------------------------------|
E|---------------------------------------------|

e|------------------------------------------|-------------------|
B|--8-15t6-15t5-15t3-15t6-15t5-15t3-15t2-15t|--3----------------|
G|------------------------------------------|-------------------|
D|------------------------------------------|-------------------|
A|------------------------------------------|-------------------|
E|------------------------------------------|-------------------|

e|--10-8----------------12-10-8--------------|
B|-------11-10-8----------------11-10-8------|
G|---------------10-9-7-----------------10-9-|
D|-------------------------------------------|
A|-------------------------------------------|
E|-------------------------------------------|

e|--13-12-10----------------15-13-12----------------|
B|-----------13-11-10----------------15-13-11-------|
G|--------------------12-10-------------------14-12-|
D|--------------------------------------------------|
A|--------------------------------------------------|
E|--------------------------------------------------|

e|---17-13-12-13----13-12-13-17-13-12-13----13-12-13-|
B|---------------13----------------------13----------|
G|*--------------------------------------------------|
D|*--------------------------------------------------|
A|---------------------------------------------------|
E|---------------------------------------------------|

e|--15-12----12----12----12-15-12----12----12----12--||
B|--------15----13----15----------15----13----15-----||
G|--------------------------------------------------*||
D|--------------------------------------------------*||
A|---------------------------------------------------||
E|---------------------------------------------------||

e|--13-15-13-12----------------------------17-------|
B|--------------15-13-12----------------18----18----|
G|-----------------------14-16----16-19----------19-|
D|-----------------------------17-------------------|
A|--------------------------------------------------|
E|--------------------------------------------------|

e|-----------------17----------------------15-------|
B|--------------18----18----------------17----17----|
G|--16----16-19----------19-15----15-17----------17-|
D|-----17----------------------17-------------------|
A|--------------------------------------------------|
E|--------------------------------------------------|

e|-----------------15----------------------13-------|
B|--------------17----17----------------15----15----|
G|--15----15-17----------17-14----14-17----------17-|
D|-----17----------------------15-------------------|
A|--------------------------------------------------|
E|--------------------------------------------------|

e|-----------------13----------------------12-------|
B|--------------15----15----------------14----14----|
G|--14----14-17----------17-12----12-15----------15-|
D|-----15----------------------14-------------------|
A|--------------------------------------------------|
E|--------------------------------------------------|

e|-----------------12----------17t15-17t13-17t12-17t-|
B|--------------14----14-----------------------------|
G|--12----12-15----------15-14-----------------------|
D|-----14--------------------------------------------|
A|---------------------------------------------------|
E|---------------------------------------------------|

e|--10-17t9-17t10-17t12-17t13-17t5-17t7-17t9-17t-|
B|-----------------------------------------------|
G|-----------------------------------------------|
D|-----------------------------------------------|
A|-----------------------------------------------|
E|-----------------------------------------------|

e|--10-17t9-17t10------------------------------|
B|---------------------------------------------|
G|----------------14-12-14-19t11-9-11-15t7-5-7-|
D|---------------------------------------------|
A|---------------------------------------------|
E|---------------------------------------------|

e|--------------------------------15-18-15----|
B|--11t10-8-6------------------17----------17-|
G|------------9t7-6-4-18----18----------------|
D|-----------------------19-------------------|
A|--------------------------------------------|
E|--------------------------------------------|

e|--------------15-18-15----------------17-22-17----|
B|-----------17----------17----------18----------18-|
G|--18----18----------------19----19----------------|
D|-----19----------------------19-------------------|
A|--------------------------------------------------|
E|--------------------------------------------------|

e|--------------17-22-17----------------15-18-15----|
B|-----------18----------18----------17----------17-|
G|--19----19----------------18----18----------------|
D|-----19----------------------19-------------------|
A|--------------------------------------------------|
E|--------------------------------------------------|

e|--------------15-18-15----------------17-22-17----|
B|-----------17----------17----------18----------18-|
G|--18----18----------------19----19----------------|
D|-----19----------------------19-------------------|
A|--------------------------------------------------|
E|--------------------------------------------------|

e|--------------17-22-17----------------------------|
B|-----------18----------18----------------14-------|
G|--19----19----------------------------15----15-12-|
D|-----19-------------------14----14-17-------------|
A|-----------------------------16-------------------|
E|--------------------------------------------------|

e|-----------------------------------------13-------|
B|-----------------14-------------------15----15----|
G|--------------15----15-------------14----------14-|
D|--14----14-17----------17-15----15----------------|
A|-----16----------------------17-------------------|
E|--------------------------------------------------|

e|-----------------13-------------------------------|
B|--------------15----15-------------------14-------|
G|-----------14----------14-------------15----15----|
D|--15----15----------------14----14-17----------17-|
A|-----17----------------------16-------------------|
E|--------------------------------------------------|

e|--------------------------------------------------|
B|-----------------14----------------------18-------|
G|--------------15----15----------------19----19----|
D|--14----14-17----------17-15----15-19----------19-|
A|-----16----------------------17-------------------|
E|--------------------------------------------------|

e|--------------------------------------------------|
B|-----------------18----------------------17-------|
G|--------------19----19----------------18----18----|
D|--15----15-19----------19-17----17-20----------20-|
A|-----17----------------------19-------------------|
E|--------------------------------------------------|

e|--------------------------------------------------|
B|-----------------18----------15-------------------|
G|-----------18-19----19----15----15-------14-------|
D|--19----19-------------19----------17-15----15----|
A|-----20----------------------------------------17-|
E|--------------------------------------------------|

e|-------------------------------------------------|
B|-------------------------------------------------|
G|----------------------------15-14-12----12-------|
D|-----12----------12-11-9-11----------15----15-14-|
A|--12----12---------------------------------------|
E|-----------13-10---------------------------------|

e|--------------------------------------------------|
B|--------------------------------------------------|
G|-----15-14-12----12-------------------------------|
D|--12----------15----15-14-12-14-12-11----11-12-14-|
A|--------------------------------------14----------|
E|--------------------------------------------------|

e|------------13-15-17-18t5-6-8-10t8-10-11-13--------|
B|--6-----------------------------------------6t8-10-|
G|--7------------------------------------------------|
D|--7------------------------------------------------|
A|--5------------------------------------------------|
E|---------------------------------------------------|

e|------------------------------------------------------------------------|
B|--11-10-11-13-15t---------------------13--------------------------------|
G|-----------------14-12-------12-14-15----12-------------12-14-15--------|
D|-----------------------15-13----------------15-13-12-15----------7-8-10-|
A|------------------------------------------------------------------------|
E|------------------------------------------------------------------------|

e|-----------------------|
B|-----------------------|
G|-7----7-8-10-----------|
D|---10--------8-10-12---|
A|-----------------------|
E|-----------------------|

e|-----------------------------------------------------------------------|
B|-----------------------------------------------------------------------|
G|----------------------------------8---------------------11-------------|
D|--8----8-10-12-10-8-------8-10-12---12-10-8----10-12-14----13-12-10----|
A|----12--------------12-10-------------------12----------------------13-|
E|-----------------------------------------------------------------------|

e|-------------------------|
B|-------------13-15-------|
G|-11-12-14-15-------12----|
D|-------------------------|
A|-------------------------|
E|-------------------------|

e|--3-------------------|--------------------------|
B|--5---------6---------|--3-----------------------|
G|--3---------7---------|--1-----------4-----------|
D|--5---------7---------|--3---------6---3-6---3---|
A|--4----8---------5----|--2-----------------5---2-|
E|----------------------|--------------------------|

e|--------------10----8----|--------8------------|
B|-------------------------|--8--6--5------------|
G|--------------9-----9----|--------5------------|
D|--------------6-----7----|--------5------------|
A|--5----------------------|---------------------|
E|----4-5--0---------------|---------------------|

e|----------------------------------------------|
B|-----------8t6-8t5---------10t8-10t6----------|
G|-------------------9t7-9t5-----------10t9-10t-|
D|----------------------------------------------|
A|----------------------------------------------|
E|----------------------------------------------|

e|-----------------------------------------------------------------------|
B|----12t10-12t8------------13t12-13t10-15t13-15t12-17t15-17t13-18t17-18-|
G|--7------------12t10-12t9----------------------------------------------|
D|-----------------------------------------------------------------------|
A|-----------------------------------------------------------------------|
E|-----------------------------------------------------------------------|

e|----------------------------|
B|--15-20t18-20t17------------|
G|-----------------17t15-17t14|
D|----------------------------|
A|----------------------------|
E|----------------------------|

e|------------------------------------------------------------------|
B|-----15t13-15t12------------13t12-13t10---------------------------|
G|--14-------------13t11-13t9-------------------------16t14-16t12---|
D|----------------------------------------15t14-15t12---------------|
A|------------------------------------------------------------------|
E|------------------------------------------------------------------|

e|-------------|
B|-------------|
G|-------------|
D|-17t15-17t14-|
A|-------------|
E|-------------|

e|-----------------------------------------------------------------------|
B|------------------------------------------------10------------10-12-13-|
G|----------------9---------10-9-------12-10-9-------12-10-9-12----------|
D|-----12-10-9------12-10-9------12-10---------12------------------------|
A|--11---------12--------------------------------------------------------|
E|-----------------------------------------------------------------------|

e|-8--5--------5-9--5--5--------5-10--5--|
B|-8--5------5------5--6------6-------6--|
G|-9--6----6--------6--7----7---------7--|
D|-10-7--7----------7--7--7-----------7--|
A|---------------------------------------|
E|---------------------------------------|

e|--3--------3-7--3--8-----------------8---|
B|--3------3------3--8-----------8-13--8---|
G|--4----4--------4--9---------9-------9---|
D|--5--5----------5--10-----10---------10--|
A|-----------------------10----------------|
E|-----------------------------------------|

e|--1--------1-5--1--6--------------6--|
B|--1------1------1--6--------6-11--6--|
G|--2----2--------2--7------7-------7--|
D|--3--3----------3--8----8---------8--|
A|----------------------8--------------|
E|-------------------------------------|

e|-----------------------------------------|----------------------|
B|--8---------8-11--8--10--------7-10--10--|--3---------8----6----|
G|--9-------9-------9--11------7-------11--|--3----3----6----7----|
D|--8----11---------8--12----7---------12--|--5----5----8----7----|
A|-----7-------------------9---------------|--5---------7----5----|
E|-----------------------------------------|----------------------|

e|------------------------|--1----------------||
B|--------------3----3----|--3----------------||
G|--9-----------5----3----|--2----------------||
D|--12----10----3----5----|--0----------------||
A|--0-----------1----5----|--0----------------||
E|------------------------|-------------------||



************************************

| h  Hammer-on
| p  Pull-off
| t  Tapping
| ~  Vibrato

************************************

            
            
Suggest correction
Creating personal tab
Creating personal tab
You can edit any tab online and save it as your Personal.

You can edit, replace or remove any tab part or add personal notes – all changes will be seen only by you.

Personal tabs can be accessed anytime from any device, even offline.
Learn more »
comments
print report bad tab
5 comments total. Showing first comments.
+2 reply
Jacob Baldwin 10 Jun 29, 2008 04:48 PM

great tab i love how you tabbed it with tapping

0 reply
sock_demon 60 Nov 05, 2008 08:28 AM

Awesome.

0 reply
Axle_Seven 10 Nov 10, 2008 12:43 PM

you are missing alot of chords at the end of toccata and in the fugue. and between

|------------13-15-17-18t5-6-8-10t8-10-11-13--------|
|--6-----------------------------------------6t8-10-|
|--7------------------------------------------------|
|--7------------------------------------------------|
|--5------------------------------------------------|
|---------------------------------------------------|
and

|--3-------------------|--------------------------|
|--5---------6---------|--3-----------------------|
|--3---------7---------|--1-----------4-----------|
|--5---------7---------|--3---------6---3-6---3---|
|--4----8---------5----|--2-----------------5---2-|
|----------------------|--------------------------|


there is a good 3min of music missing even with the tabs that are already there. just my 2 pennies

guest
You may want to rate the tab now too:
select rating
Wanna post a correction for this tab? Suggest correction