Oops, an error
Loading. Please wait.

July 31St The Last Stand tab

version 1
version 1

Whole song

Interactive

by John 5
1,114 views 1 this week
no commentswrite comment
1 2 3 4 5
3 more votes to show rating
add to favorites
×
Save as Personal and add changes to this tab that will be seen only by you. Learn more ›
×
You can save this tab as Personal to edit and correct it or add notes. All changes will be seen only by you. Learn more »
launch autoscroll
font size
0
reset
how to read this tab
guitar tuner
edit
Autoscroll
slow
fast
+/-
esc
set tempo
stop
#----------------------------------PLEASE NOTE---------------------------------#
#This file is the author's own work and represents their interpretation of the #
#song. You may only use this file for private study, scholarship, or research. #
#------------------------------------------------------------------------------#

JULY 31ST (THE LAST STAND)
As recorded by John 5
(From the 2007 Album THE DEVIL KNOWS MY NAME)

Transcribed by tonedeafidiot
	

Music by John 5

Bb5
x 1 3 3 x x
	
C#5
x 4 6 6 x x
	
F#5
x 9 11 11 x x
	
F5
x 8 10 10 x x
C5
x 3 5 5 x x
	
Eb5
x 6 8 8 x x

Gtr I (E A D G B E) - 'Slight Distortion'
Gtr II (E A D G B E) - 'Slight Distortion w/Fingers'
Gtr III (E A D G B E) - 'Slight Distortion w/Chorus'
Gtr IV (E A D G B E) - 'Distortion 3'
Gtr V (E A D G B E) - 'Distortion'
Gtr VI (E A D G B E) - 'Distortion 2'

 A
  Moderately Q=71
 4/4
  Gtr II
   H     H       H     H       H     H       H     H
|-11----11----|-11----11----|--9-----9----|--9-----9----||
|-11----11----|-11----11----|--9-----9----|--9-----9----||
|-14----14----|-14----14----|-12----12----|-12----12----||
|-13----13----|-13----13----|-11----11----|-11----11----||
|-------------|-------------|-------------|-------------||
|-------------|-------------|-------------|-------------||


     H           H             H           H
||--11----------11----------|-11----------11----------|
||o-11----------11----------|-11----------11----------|
||--14----------14----------|-14----------14----------|
||--13----------13----------|-13----------13----------|
||o-------------------------|-------------------------|
||--------------------------|-------------------------|
|
|   Gtr III
|    E  E  E  E  E  E  E  E    E  E  E  E  E  E  E  E
||--------------------------|-------------------------|
||o-11----11----11----11----|-11----11----11----11----|
||--14----14----14----14----|-14----14----14----14----|
||-----13----13----13----13-|----13----13----13----13-|
||o-------------------------|-------------------------|
||--------------------------|-------------------------|


   H           H             H           H
|--9-----------9----------|--9-----------9------------||
|--9-----------9----------|--9-----------9-----------o||
|-12----------12----------|-12----------12------------||
|-11----------11----------|-11----------11------------||
|-------------------------|--------------------------o||
|-------------------------|---------------------------||
|
|  E  E  E  E  E  E  E  E    E  E  E  E  E  E  E  E
|-------------------------|---------------------------||
|--9-----9-----9-----9----|--9-----9-----9-----9-----o||
|-12----12----12----12----|-12----12----12----12------||
|----11----11----11----11-|----11----11----11----11---||
|-------------------------|--------------------------o||
|-------------------------|---------------------------||


     H           H             H           H
||--11----------11----------|-11----------11----------|
||o-11----------11----------|-11----------11----------|
||--14----------14----------|-14----------14----------|
||--13----------13----------|-13----------13----------|
||o-------------------------|-------------------------|
||--------------------------|-------------------------|
|
|    E  E  E  E  E  E  E  E    E  E  E  E  E  E  E  E
||--------------------------|-------------------------|
||o-11----11----11----11----|-11----11----11----11----|
||--14----14----14----14----|-14----14----14----14----|
||-----13----13----13----13-|----13----13----13----13-|
||o-------------------------|-------------------------|
||--------------------------|-------------------------|


   H           H             H           H
|--9-----------9----------|--9-----------9------------||
|--9-----------9----------|--9-----------9-----------o||
|-12----------12----------|-12----------12------------||
|-11----------11----------|-11----------11------------||
|-------------------------|--------------------------o||
|-------------------------|---------------------------||
|
|  E  E  E  E  E  E  E  E    E  E  E  E  E  E  E  E
|-------------------------|---------------------------||
|--9-----9-----9-----9----|--9-----9-----9-----9-----o||
|-12----12----12----12----|-12----12----12----12------||
|----11----11----11----11-|----11----11----11----11---||
|-------------------------|--------------------------o||
|-------------------------|---------------------------||


  Gtr V
   W             W
  Gtrs IV, VI
   W             W
|-------------|-------------||
|-------------|-------------||
|-------------|-------------||
|-------------|-------------||
|-------------|-------------||
|-------------|-------------||
|
|  H     H       H     H
|-11----11----|-11----11----||
|-11----11----|-11----11----||
|-14----14----|-14----14----||
|-13----13----|-13----13----||
|-------------|-------------||
|-------------|-------------||


 B
  Bb5        C#5            F#5         F5
  H           Q.       +E     H          Q.       +E
  |           |         |     |          |         |
  /           /         /     /          /         /

                     ~~~~~~~~~~~~               ~~
  E  E  E  E  E   E  Q       +E   Q   E  E   E  Q
|-------------------------|--------------------------|
|------------13-----14----|-(14)--------13-----14----|
|---15-15-15-----15-------|------15--15-----15-------|
|-------------------------|--------------------------|
|-------------------------|--------------------------|
|-------------------------|--------------------------|
|
| W                           W
|-------------------------|--------------------------|
|-------------------------|--------------------------|
|-------------------------|--------------------------|
|-------------------------|--------------------------|
|-------------------------|--------------------------|
|-------------------------|--------------------------|


  Bb5           C#5           C5
    H            H             W
    |            |             |
    /            /             /

    ~~~~
   +E   E  E  E  E  E  E  E    Q.    +E       +E   +E   +Q
|---------------------------|--------------------------------|
|-(14)----------13----14-16-|-13----(13)b14==(13)-(13)r(13)--|
|------15-15-15----15-------|--------------------------------|
|---------------------------|--------------------------------|
|---------------------------|--------------------------------|
|---------------------------|--------------------------------|


  Bb5           C#5            F#5         F5
    H            Q.       +E     H          Q.       +E
    |            |         |     |          |         |
    /            /         /     /          /         /

                        ~~~~~~~~~~~~               ~~
   +E   E  E  E  E   E  Q       +E   Q   E  E   E  Q
|----------------------------|--------------------------|
|-(13)----------13-----14----|-(14)--------13-----14----|
|------15-15-15-----15-------|------15--15-----15-------|
|----------------------------|--------------------------|
|----------------------------|--------------------------|
|----------------------------|--------------------------|


  Bb5           F#5           F5
    Q.       +E  H             W
    |         |  |             |
    /         /  /             /

  Gtr II
    W                          W
|---------------------------|-------------------||
|---------------------------|-------------------||
|---------------------------|-------------------||
|---------------------------|-------------------||
|---------------------------|-------------------||
|---------------------------|-------------------||
|
| Gtrs IV, VI
|   ~~~~
|  +E   E  E  E  E  E  E  E    H     +Q.    +E
|---------------------------|-------------------||
|-(14)----------13----14-16-|-13----(13)---(13)s||
|------15-15-15----15-------|-------------------||
|---------------------------|-------------------||
|---------------------------|-------------------||
|---------------------------|-------------------||
|
| Gtr III
|   W                          W
|---------------------------|-------------------||
|---------------------------|-------------------||
|---------------------------|-------------------||
|---------------------------|-------------------||
|---------------------------|-------------------||
|---------------------------|-------------------||


 C
  Eb5
   W                         +W
   |                          |
   /                          /

   H           H              H            H
|-11----------11----------|--11-----------11----------|
|-11----------11----------|--11-----------11----------|
|-14----------14----------|--14-----------14----------|
|-13----------13----------|--13-----------13----------|
|-------------------------|---------------------------|
|-------------------------|---------------------------|
|
| Gtr II
|  W                         +W
|-------------------------|---------------------------|
|-16----------------------|-(16)----------------------|
|-------------------------|---------------------------|
|-------------------------|---------------------------|
|-------------------------|---------------------------|
|-------------------------|---------------------------|
|
|  E  E  E  E  E  E  E  E     E   E  E  E  E  E  E  E
|-------------------------|---------------------------|
|-11----11----11----11----|--11-----11----11----11----|
|-14----14----14----14----|--14-----14----14----14----|
|----13----13----13----13-|------13----13----13----13-|
|-------------------------|---------------------------|
|-------------------------|---------------------------|


   H           H             H           H
|--9-----------9----------|--9-----------9----------|
|--9-----------9----------|--9-----------9----------|
|-12----------12----------|-12----------12----------|
|-11----------11----------|-11----------11----------|
|-------------------------|-------------------------|
|-------------------------|-------------------------|
|
| Gtr III
|  E  E  E  E  E  E  E  E    E  E  E  E  E  E  E  E
|-------------------------|-------------------------|
|--9-----9-----9-----9----|--9-----9-----9-----9----|
|-12----12----12----12----|-12----12----12----12----|
|----11----11----11----11-|----11----11----11----11-|
|-------------------------|-------------------------|
|-------------------------|-------------------------|


   H           H             H           H
|-11----------11----------|-11----------11----------|
|-11----------11----------|-11----------11----------|
|-14----------14----------|-14----------14----------|
|-13----------13----------|-13----------13----------|
|-------------------------|-------------------------|
|-------------------------|-------------------------|
|
|  E  E  E  E  E  E  E  E    E  E  E  E  E  E  E  E
|-------------------------|-------------------------|
|-11----11----11----11----|-11----11----11----11----|
|-14----14----14----14----|-14----14----14----14----|
|----13----13----13----13-|----13----13----13----13-|
|-------------------------|-------------------------|
|-------------------------|-------------------------|


   H           H             H           H
|--9-----------9----------|--9-----------9----------|
|--9-----------9----------|--9-----------9----------|
|-12----------12----------|-12----------12----------|
|-11----------11----------|-11----------11----------|
|-------------------------|-------------------------|
|-------------------------|-------------------------|
|
|  E  E  E  E  E  E  E  E    E  E  E  E  E  E  E  E
|-------------------------|-------------------------|
|--9-----9-----9-----9----|--9-----9-----9-----9----|
|-12----12----12----12----|-12----12----12----12----|
|----11----11----11----11-|----11----11----11----11-|
|-------------------------|-------------------------|
|-------------------------|-------------------------|


   H           H             H           H
|-11----------11----------|-11----------11----------|
|-11----------11----------|-11----------11----------|
|-14----------14----------|-14----------14----------|
|-13----------13----------|-13----------13----------|
|-------------------------|-------------------------|
|-------------------------|-------------------------|
|
|  E  E  E  E  E  E  E  E    E  E  E  E  E  E  E  E
|-------------------------|-------------------------|
|-11----11----11----11----|-11----11----11----11----|
|-14----14----14----14----|-14----14----14----14----|
|----13----13----13----13-|----13----13----13----13-|
|-------------------------|-------------------------|
|-------------------------|-------------------------|


   W                           W
  Gtr V
      <
   H  H                       +W
|--------------------------|----------------------------||
|--------------------------|----------------------------||
|--------------------------|----------------------------||
|--------------------------|----------------------------||
|----<4>-------------------|-(<4>)----------------------||
|--------------------------|----------------------------||
|
| Gtr II
|  H            H              H             H
|--9------------9----------|---9-------------9----------||
|--9------------9----------|---9-------------9----------||
|-12-----------12----------|--12------------12----------||
|-11-----------11----------|--11------------11----------||
|--------------------------|----------------------------||
|--------------------------|----------------------------||
|
| Gtr III
|  E  E   E  E  E  E  E  E     E    E  E  E  E  E  E  E
|--------------------------|----------------------------||
|--9------9-----9-----9----|---9-------9-----9-----9----||
|-12-----12----12----12----|--12------12----12----12----||
|----11-----11----11----11-|-------11----11----11----11-||
|--------------------------|----------------------------||
|--------------------------|----------------------------||


 D
  Bb5         C#5            F#5         F5
  Gtr V
   H           Q.       +E     H          Q.       +E
   |           |         |     |          |         |
   /           /         /     /          /         /

  Gtrs IV, VI
                      ~~~~~~~~~~~~               ~~
   E  E  E  E  E   E  Q       +E   Q   E  E   E  Q
|--------------------------|--------------------------|
|-------------13-----14----|-(14)--------13-----14----|
|----15-15-15-----15-------|------15--15-----15-------|
|--------------------------|--------------------------|
|--------------------------|--------------------------|
|--------------------------|--------------------------|
|
| Gtr I
|  W                          +H.                Q
|-13-----------------------|-(13)---------------14----|
|--------------------------|--------------------------|
|--------------------------|--------------------------|
|--------------------------|--------------------------|
|--------------------------|--------------------------|
|--------------------------|--------------------------|
|
|  W                           W
|--------------------------|--------------------------|
|--------------------------|--------------------------|
|--------------------------|--------------------------|
|--------------------------|--------------------------|
|--------------------------|--------------------------|
|--------------------------|--------------------------|


  Bb5           C#5           C5
    H            H              W
    |            |              |
    /            /              /

  Gtr I
    W                          +H.                        Q
|--13-----------------------|-(13)-----------------------14---|
|---------------------------|---------------------------------|
|---------------------------|---------------------------------|
|---------------------------|---------------------------------|
|---------------------------|---------------------------------|
|---------------------------|---------------------------------|
|
| Gtrs IV, VI
|   ~~~~
|  +E   E  E  E  E  E  E  E     Q.    +E       +E   +E   +Q
|---------------------------|---------------------------------|
|-(14)----------13----14-16-|--13----(13)b14==(13)-(13)r(13)--|
|------15-15-15----15-------|---------------------------------|
|---------------------------|---------------------------------|
|---------------------------|---------------------------------|
|---------------------------|---------------------------------|


  Bb5           C#5            F#5           F5
    H            Q.       +E     H            Q.                  +E
    |            |         |     |            |                    |
    /            /         /     /            /                    /

    W                           +H.                       Q
|--13------------------------|-(13)----------------------14-----------|
|----------------------------|----------------------------------------|
|----------------------------|----------------------------------------|
|----------------------------|----------------------------------------|
|----------------------------|----------------------------------------|
|----------------------------|----------------------------------------|
|
|                       ~~~~~~~~~~~~                           ~~~~
|  +E   E  E  E  E   E  Q       +E   E  E  E  E   a      +E   +Q
|----------------------------|----------------------------------------|
|-(13)----------13-----14----|-(14)----------13--14b16==(14)r(14)-----|
|------15-15-15-----15-------|------15-15-15--------------------------|
|----------------------------|----------------------------------------|
|----------------------------|----------------------------------------|
|----------------------------|----------------------------------------|


  Bb5           F#5           F5            Bb5               C#5
    Q.       +E  H              W            H                  Q.             +E
    |         |  |              |            |                  |               |
    /         /  /              /            /                  /               /

    W                          +W            W
|--13-----------------------|-(13)--------|-13------------------------------------|
|---------------------------|-------------|---------------------------------------|
|---------------------------|-------------|---------------------------------------|
|---------------------------|-------------|---------------------------------------|
|---------------------------|-------------|---------------------------------------|
|---------------------------|-------------|---------------------------------------|
|
|   ~~~~
|  +E   E  E  E  E  E  E  E     W            E  S  S  S  S  E  +E   S  S  S  S  E
|---------------------------|-------------|---------------------------------------|
|-(14)----------13----14-16-|--13---------|----14-13-14-13---------14-13-14-13----|
|------15-15-15----15-------|-------------|-15-------------15-(15)-------------15-|
|---------------------------|-------------|---------------------------------------|
|---------------------------|-------------|---------------------------------------|
|---------------------------|-------------|---------------------------------------|


  F#5                 F5
    H                   Q.             +E
    |                   |               |
    /                   /               /

   +H.                  Q
|-(13)-----------------14-------------------|
|-------------------------------------------|
|-------------------------------------------|
|-------------------------------------------|
|-------------------------------------------|
|-------------------------------------------|
|
|  +E   S  S  S  S  E  +E   S  S  S  S  E
|-------------------------------------------|
|------14-13-14-13---------14-13-14-13------|
|-(15)-------------15-(15)-------------15---|
|-------------------------------------------|
|-------------------------------------------|
|-------------------------------------------|


  Bb5                 C#5               C5
    H                  H                 W
    |                  |                 |
    /                  /                 /

  Gtr VI
   +E   S  S  S  S  E  Q   +S   E.       S  E.  +E   +E        Q   a  Q
|----------------------------------|-------------------------------------|
|------14-13-14-13-----------------|-------------------------/16--16h18--|
|-(15)-------------15-13--(13)s15--|----15s17--(17)-(17)\----------------|
|----------------------------------|-------------------------------------|
|----------------------------------|-------------------------------------|
|----------------------------------|-------------------------------------|
|
| Gtr IV
|  +E   S  S  S  S  E  Q   +S   E.    a  Q      +E    E    a   Q      Q
|----------------------------------|-------------------------------------|
|------14-13-14-13-----------------|-------------------------------------|
|-(15)-------------15-13--(13)s15--|-15s10-----(10)S=13---13s=18-----17--|
|----------------------------------|-------------------------------------|
|----------------------------------|-------------------------------------|
|----------------------------------|-------------------------------------|


  Bb5               C#5
   H                  Q.             +E
   |                  |               |
   /                  /               /

   E  Q           E   E   E     Q
|---------------------------------------|
|----18--------------16--18-------------|
|-15-------------15------------15-------|
|---------------------------------------|
|---------------------------------------|
|---------------------------------------|
|
|  E  S  S  S  S  E  +E   S  S  S  S  E
|---------------------------------------|
|----14-13-14-13---------14-13-14-13----|
|-15-------------15-(15)-------------15-|
|---------------------------------------|
|---------------------------------------|
|---------------------------------------|


  F#5               F5
   H                 Q.             +E
   |                 |               |
   /                 /               /

   E  Q           E  E   E     Q
|--------------------------------------|
|----18-------------16--18-------------|
|-15-------------15-----------15-------|
|--------------------------------------|
|--------------------------------------|
|--------------------------------------|
|
|  E  S  S  S  S  E  E   S  S  S  S  E
|--------------------------------------|
|----14-13-14-13----16--14-13-14-13----|
|-15-------------15-----------------15-|
|--------------------------------------|
|--------------------------------------|
|--------------------------------------|


  Bb5                    F#5               F5
    Q.             +E     H                 W
    |               |     |                 |
    /               /     /                 /

    E   Q           E  a  Q    Q            S.     +T   +Q.    +H
|-------------------------------------|-------------------------------||
|------18-------------19s21---19------|----13b14==(13)r(13)---(13)----||
|--15--------------15-----------------|-------------------------------||
|-------------------------------------|-------------------------------||
|-------------------------------------|-------------------------------||
|-------------------------------------|-------------------------------||
|
|  +E   S  S  S  S  E     Q   +S   E.    a  W
|-------------------------------------|-------------------------------||
|------14-13-14-13--------------------|-------------------------------||
|-(15)-------------15----13--(13)s15--|-15s10-------------------------||
|-------------------------------------|-------------------------------||
|-------------------------------------|-------------------------------||
|-------------------------------------|-------------------------------||


 E
  Eb5
   W           +W           W          W
   |            |
   /            /

   W           +W           W          W
|-13--------|-(13)--------|----------|------|
|-----------|-------------|----------|------|
|-----------|-------------|----------|------|
|-----------|-------------|----------|------|
|-----------|-------------|----------|------|
|-----------|-------------|----------|------|


  W          W          W          W
|----------|----------|----------|------*|
|----------|----------|----------|------*|
|----------|----------|----------|------*|
|----------|----------|----------|------*|
|----------|----------|----------|------*|
|----------|----------|----------|------*|



Duration Legend
---------------
W - whole; H - half; Q - quarter; E - 8th; S - 16th; T - 32nd; X - 64th; a - acciaccatura
+ - note tied to previous; . - note dotted; .. - note double dotted
Uncapitalized letters represent notes that are staccato (1/2 duration)
Irregular groupings are notated above the duration line
Duration letters will always appear directly above the note/fret number it represents the
duration for.  Duration letters with no fret number below them represent rests.  Multi-
bar rests are notated in the form Wxn, where n is the number of bars to rest for.  Low
melody durations appear below the staff

Tablature Legend
----------------
 h   - hammer-on
 p   - pull-off
 b   - bend
 pb  - pre-bend
 r   - bend release (if no number after the r, then release immediately)
 /\  - slide into or out of (from/to "nowhere")
 s   - legato slide
 S   - shift slide
 - natural harmonic
[n]  - artificial harmonic
n(n) - tapped harmonic
 ~   - vibrato
 tr  - trill
 T   - tap
 TP  - trem. picking
 PM  - palm muting
\n/  - tremolo bar dip; n = amount to dip
 \n  - tremolo bar down
 n/  - tremolo bar up
/n\  - tremolo bar inverted dip
 =   - hold bend; also acts as connecting device for hammers/pulls
 <> - volume swell (louder/softer)
 x   - on rhythm slash represents muted slash
 o   - on rhythm slash represents single note slash

Misc Legend
-----------
 |  - bar
||  - double bar
||o - repeat start
o|| - repeat end
*|  - double bar (ending)
 :  - bar (freetime)
 $  - Segno
 &  - Coda
Tempo markers -  = BPM(8/16=s8/s16), where s8 = swing 8ths, s16 = swing 16ths


            
            
Suggest correction
Creating personal tab
Creating personal tab
You can edit any tab online and save it as your Personal.

You can edit, replace or remove any tab part or add personal notes – all changes will be seen only by you.

Personal tabs can be accessed anytime from any device, even offline.
Learn more »
Give kudos to tab author, rate the tab!
1 2 3 4 5
comments
print report bad tab
guest
You may want to rate the tab now too:
select rating
Wanna post a correction for this tab? Suggest correction