Oops, an error
Loading. Please wait.

I Cannot Refract tab

54 views 1 this week
no commentswrite comment
1 2 3 4 5
3 more votes to show rating
add to favorites
×
Save as Personal and add changes to this tab that will be seen only by you. Learn more ›
×
You can save this tab as Personal to edit and correct it or add notes. All changes will be seen only by you. Learn more »
launch autoscroll
font size
0
reset
how to read this tab
guitar tuner
edit
Autoscroll
slow
fast
+/-
esc
set tempo
stop
Author
                               I Cannot Refract                                 

http://www.johnbura.com

                                                                   By: John Bura
Acoustic Guitar



     W                    Q     Q     E   E   E   E   
E||-------------------|--------12----12------12--14--|
B||-------------------|--10--------------10----------|
G||-------------------|------------------------------|
D||-------------------|------------------------------|
A||-------------------|------------------------------|
E||-------------------|------------------------------|


   E   E   E   Q.      S  S E     E   E  E   Q    E   Q     
-------------------------------|---------------------------|
--15--14--------------10-------|---------------------------|
----------14--11---------11-9--|--L--11--9--11----9--11----|
-------------------------------|---------------------------|
-------------------------------|---------------------------|
-------------------------------|---------------------------|


   E   E   E   Q     E   Q        S. S  S.E.  S H           W                 
------------------------------|--------------------------|-------------------|
------10------10--------10----|-----10-------------------|-------------------|
--11------11--------11--------|--11----11-9---7-9--------|--L----------------|
------------------------------|--------------------------|-------------------|
------------------------------|--------------------------|-------------------|
------------------------------|--------------------------|-------------------|


  W                   Q     Q     E   E   E   E   
-------------------|--5----12----12------12--14--|
-------------------|-----------------10----------|
--L----------------|-----------------------------|
-------------------|-----------------------------|
-------------------|-----------------------------|
-------------------|-----------------------------|


   E   E   E   Q.      S  S E     E   E  E   Q    E   Q     
-------------------------------|---------------------------|
--15--14--------------10-------|---------------------------|
----------14--11---------11-9--|--L--11--9--11----9--11----|
-------------------------------|---------------------------|
-------------------------------|---------------------------|
-------------------------------|---------------------------|


   E   E   E   Q     E   Q        S. S  S.E.  S S  S  S S Q     
------------------------------|--------------------------------|
------10------10--------10----|-----10-------------------------|
--11------11--------11--------|--11----11-9---7---------7-9----|
------------------------------|-----------------9-10-10--------|
------------------------------|--------------------------------|
------------------------------|--------------------------------|


  W                   W                   W                 
-------------------|-------------------|-------------------|
-------------------|-------------------|-------------------|
--L----------------|--L----------------|--L----------------|
-------------------|-------------------|-------------------|
-------------------|-------------------|-------------------|
-------------------|-------------------|-------------------|


  E  S S E  S S E  S S E  S S    E  S S E  S S E  T E  T T E  T  
--0--0-0-0--0-0-0--0-0-0--0-0-|---------------------------------|
------------------------------|--3--3-3-3--3-3-1--L-0--L--------|
--2--2-2-2--2-2-2--2-2-2--2-2-|--0--0-0-0--0-0-------------0--L-|
------------------------------|---------------------------------|
------------------------------|---------------------------------|
------------------------------|---------------------------------|


  W                   E  S S E  S S E  S S E  S S  
-------------------|--2--2-2-2--2-2-2--2-2-2--2-2-|
-------------------|--0--0-0-0--0-0-0--0-0-0--0-0-|
-------------------|------------------------------|
-------------------|------------------------------|
-------------------|------------------------------|
-------------------|------------------------------|


  E  S S E  S S E  T E  T T E  T    E  T E  T T E  T E  T E  T T E  T  
----------------1--L-0--L--------|-------------------3--L-2--L--------|
--3--3-3-3--3-3-------------1--L-|--4--L-3--L--------------------3--L-|
--0--0-0-0--0-0------------------|--------------3--L------------------|
---------------------------------|------------------------------------|
---------------------------------|------------------------------------|
---------------------------------|------------------------------------|


  E  S S E  S S E  S S E  S S    E  S S E  S S E  S S E  S S  
--2--2-2-2--2-2-2--2-2-2--2-2-|--2--2-2-2--2-2-2--2-2-2--2-2-|
--0--0-0-0--0-0-0--0-0-0--0-0-|--0--0-0-0--0-0-0--0-0-0--0-0-|
------------------------------|------------------------------|
------------------------------|------------------------------|
------------------------------|------------------------------|
------------------------------|------------------------------|


  E  S S E  S S E  S S E  S S    E  S S E  S S E  S S E  S S  
--4--4-4-4--4-4-4--4-4-4--4-4-|--4--4-4-4--4-4-4--4-4-4--4-4-|
--2--2-2-2--2-2-2--2-2-2--2-2-|--2--2-2-2--2-2-2--2-2-2--2-2-|
------------------------------|------------------------------|
------------------------------|------------------------------|
------------------------------|------------------------------|
------------------------------|------------------------------|


  E  S S E  S S  E  E   E  E      E  E  E  E  E  E  E  E   
--5--5-5-5--5-5-10--8---------|---------------------------|
--3--3-3-3--3-3--------10--8--|--10--8--------------0-----|
------------------------------|---------9--7--9--7--------|
------------------------------|------------------------7--|
------------------------------|---------------------------|
------------------------------|---------------------------|


  Q    Q    E  E  E  E     E  E  E  Q.     S S E     E  E  E  Q    E  Q     
---------------------0--|-------------------------|------------------------|
------------------------|-----0-------------------|------------------------|
--0----7----7--0--7-----|--5-----0---------0------|------------------------|
------------------------|-----------2--------2-0--|--L--2--0--2----0--2----|
------------------------|-------------------------|------------------------|
------------------------|-------------------------|------------------------|


  E  E  E  Q    E  Q       E  E  E  Q    E  Q     
------------------------|--0--3--0--3----0--3----|
------------------------|------------------------|
-----0-----0-------0----|------------------------|
--2-----2-------2-------|------------------------|
------------------------|------------------------|
------------------------|------------------------|


  S. S S. S S S S S S S S Q       H.           S. S S.  
--0--3-0----0-3-5-3-0----------|---------------0--3-0--|
----------3-----------3-0-3----|--L--------------------|
-------------------------------|-----------------------|
-------------------------------|-----------------------|
-------------------------------|-----------------------|
-------------------------------|-----------------------|


  S S S S S S S S S. S E  T T E  T    H        E  T S. S. E  T  
----0------------------------------|----------------------0--L-|
--3---3-1---------1--1--------3--L-|-----------1--L----3-------|
----------2-0---2------2--L--------|----------------2----------|
--------------3--------------------|---------------------------|
-----------------------------------|---------------------------|
-----------------------------------|---------------------------|


  Q.     Q.     Q       S S S S S S S S Q    Q       W                 
--3------5-----------|----------------------------|-------------------|
----------------4----|--3-3-3-3-3-3-3-3-3---------|-------------------|
---------------------|----------------------------|-------------------|
---------------------|----------------------------|-------------------|
---------------------|----------------------------|-------------------|
---------------------|----------------------------|-------------------|


  W                   W                   W                   W                 
-------------------|-------------------|-------------------|-------------------|
-------------------|-------------------|-------------------|-------------------|
-------------------|-------------------|-------------------|-------------------|
-------------------|-------------------|-------------------|-------------------|
-------------------|-------------------|-------------------|-------------------|
-------------------|-------------------|-------------------|-------------------|


  W                   W                   W                   W                 
-------------------|-------------------|-------------------|-------------------|
-------------------|-------------------|-------------------|-------------------|
-------------------|-------------------|-------------------|-------------------|
-------------------|-------------------|-------------------|-------------------|
-------------------|-------------------|-------------------|-------------------|
-------------------|-------------------|-------------------|-------------------|


  W                   W                   W                   W                 
-------------------|-------------------|-------------------|-------------------|
-------------------|-------------------|-------------------|-------------------|
-------------------|-------------------|-------------------|-------------------|
-------------------|-------------------|-------------------|-------------------|
-------------------|-------------------|-------------------|-------------------|
-------------------|-------------------|-------------------|-------------------|


  W                   W                   W                 
-------------------|-------------------|-------------------|
-------------------|-------------------|-------------------|
-------------------|-------------------|-------------------|
-------------------|-------------------|-------------------|
-------------------|-------------------|-------------------|
-------------------|-------------------|-------------------|


  Q    Q    E  E  E  E     E  E  E  Q.     S S E     E  E  E  Q    E  Q     
------------------------|-------------------------|------------------------|
-------1----1-----1--3--|-------------------------|------------------------|
------------------------|--3--2-------------------|------------------------|
--3------------3--------|--------3--0------3-0----|-----0-----0-------0----|
------------------------|----------------------3--|--L-----3-------3-------|
------------------------|-------------------------|------------------------|


  E  E  E  Q    E  Q       E  E  E  Q    E  Q       E  E  E  Q    E  Q     
------------------------|-----1-----1-------1----|-----1-----3-------1----|
------------------------|--3-----3-------3-------|--3-----3-------3-------|
------------------------|------------------------|------------------------|
--0--3--0--3----0--3----|------------------------|------------------------|
------------------------|------------------------|------------------------|
------------------------|------------------------|------------------------|


  S S S S S S S S S S S S E  E     E  T E  T T E  T S S S S E  S S  
----1-0-------------------------|--------------1--L---1-0----------|
--3-----3-3-1----------------1--|--3--L-------------3-----3-1------|
--------------2-0-------0-2-----|-------2--L-------------------2-0-|
------------------3-0-3---------|----------------------------------|
--------------------------------|----------------------------------|
--------------------------------|----------------------------------|


  S S E  S S S S E  E  E  E     E  E  E  Q    E  Q     
---------3-1-0---------------|-----------1-------3----|
------1--------3-1-----1--3--|--1-----1-------3-------|
----2---------------2--------|-----2------------------|
--3--------------------------|------------------------|
-----------------------------|------------------------|
-----------------------------|------------------------|


  E  E  E  Q    E  S S S S    S S S S S S S S S S S S S S S S  
-----0-----1-------3-5-6-5-|--------------------------0-1-3-5-|
--3-----3-------3----------|--6-5-3-------1-3-1---1-3---------|
---------------------------|--------5-2-3-------3-------------|
---------------------------|----------------------------------|
---------------------------|----------------------------------|
---------------------------|----------------------------------|


  E  S S S S E  S S S S E  S S    S S E  S S S S E  S S S S E   
-----0-1-3-5----0-1-3-5------3-|--5-6------3-5-6------3-5-8----|
---------------------------6---|---------6----------6----------|
-------------------------------|-------------------------------|
-------------------------------|-------------------------------|
-------------------------------|-------------------------------|
-------------------------------|-------------------------------|


   S S S S S S S S S S S S S S S S    W                   W                 
--10-8-6-5-3-1-0---0---------------|-------------------|-------------------|
-----------------3---3-1-3-1-------|-------------------|-------------------|
-----------------------------3-2---|-------------------|-------------------|
---------------------------------3-|--0----------------|-------------------|
-----------------------------------|-------------------|-------------------|
-----------------------------------|-------------------|-------------------|


  W                   W                   Q    Q    E  E  E  E   
-------------------|-------------------|------------------------|
-------------------|-------------------|-------1----1-----1--3--|
-------------------|-------------------|------------------------|
-------------------|-------------------|--3------------3--------|
-------------------|-------------------|------------------------|
-------------------|-------------------|------------------------|


  E  E  E  Q.     S S E     E  E  E  Q    E  Q       E  E  E  Q    E  Q     
-------------------------|------------------------|------------------------|
-------------------------|------------------------|------------------------|
--3--2-------------------|------------------------|------------------------|
--------3--0------3-0----|-----0-----0-------0----|--0--3--0--3----0--3----|
----------------------3--|--L-----3-------3-------|------------------------|
-------------------------|------------------------|------------------------|


  E  E  E  Q    E  Q       E  E  E  Q    E  Q     
--0--3--0--3----0--3----|--0--3--0--5----0--3----|
------------------------|------------------------|
------------------------|------------------------|
------------------------|------------------------|
------------------------|------------------------|
------------------------|------------------------|


  S S S S S S S S S S S S E  E     S S S S S S S S S S S S E  E   
--0-3-0---0---------------------|--0-3-0---0-----------0-3-5--8--|
--------3---3-0-----------0--3--|--------3---3-0---0-3-----------|
----------------2-0---0-2-------|----------------2---------------|
--------------------2-----------|--------------------------------|
--------------------------------|--------------------------------|
--------------------------------|--------------------------------|


   W                   W                   W                 
--10----------------|-------------------|-------------------|
--------------------|-------------------|-------------------|
--------------------|-------------------|-------------------|
--------------------|-------------------|-------------------|
--------------------|-------------------|-------------------|
--------------------|-------------------|-------------------|


  W                   W                   W                   W                 
-------------------|-------------------|-------------------|-------------------|
-------------------|-------------------|-------------------|-------------------|
-------------------|-------------------|-------------------|-------------------|
-------------------|-------------------|-------------------|-------------------|
-------------------|-------------------|-------------------|-------------------|
-------------------|-------------------|-------------------|-------------------|


  W                   Q    Q    E  E  E  E     E  E  E  Q.     S S E   
-------------------|-------0----0-----0--2--|-------------------------|
-------------------|------------------------|--3--2-------------------|
-------------------|--2------------2--------|--------2---------1------|
-------------------|------------------------|-----------4--------4-2--|
-------------------|------------------------|-------------------------|
-------------------|------------------------|-------------------------|


  E  E  E  Q    E  Q       E  E  E  Q    E  E  S S    E  E  E  Q    E  Q     
------------------------|-------------------0--3-2-|--0--3--0--5----0--3----|
------------------------|-----0-----0----3---------|------------------------|
------------------------|--2-----2-----------------|------------------------|
--L--4--2--4----2--4----|--------------------------|------------------------|
------------------------|--------------------------|------------------------|
------------------------|--------------------------|------------------------|


  S S S S S S S S S S S S S S S S    E  E  E  Q    E  E  E   
--0-3-2-0-------------------------|-------------------0--2--|
----------3-0---------------------|-----------0----3--------|
--------------2-0-----------0-----|-----0--2----------------|
------------------4-2-0-2-4---4-0-|--2----------------------|
----------------------------------|-------------------------|
----------------------------------|-------------------------|


  E  E  E   Q     E   E   E      Q     Q     E   E   E   E   
--3--6--8--10----13--15--17--|----------------------10--12--|
-----------------------------|--------15----15--------------|
-----------------------------|------------------12----------|
-----------------------------|--17--------------------------|
-----------------------------|------------------------------|
-----------------------------|------------------------------|


   E   E   E  Q    S S Q       E  E  E  Q    E  Q       E  E  E  Q    E  Q     
----------------------------|------------------------|-----5-----7-------5----|
--13--12-----------8--------|-----8-----8-------8----|--7-----7-------7-------|
----------12--9------9-7----|--9-----9-------9-------|------------------------|
----------------------------|------------------------|------------------------|
----------------------------|------------------------|------------------------|
----------------------------|------------------------|------------------------|


  S S S S S S S S S S S S S S S S    E  T E  T T E  T E  T E  T T E  T  
----5---------------------------0-|--2--L--------5--L-4--L-0--L---7--L-|
--7---7-5-----0-----------0-2-3---|-------3--L-------------------------|
----------7-6---2-------2---------|------------------------------------|
------------------4-2-4-----------|------------------------------------|
----------------------------------|------------------------------------|
----------------------------------|------------------------------------|


  E  T E  T T E  T  S  S  S  S  S  S S S    E  S S E  S S E  S S E  S S  
--6--L--------9--L-12-10-----------------|------------------------------|
-------7--L--------------12-10-----------|------------------------------|
-------------------------------12-11-9-7-|-----0-0-0--0-0----0-0-0--0-0-|
-----------------------------------------|------------------------------|
-----------------------------------------|--8-------------8-------------|
-----------------------------------------|--8--8-8-8--8-8-8--8-8-8--8-8-|


  E  S S E  S S E  S S E  S S    E  S S E  S S E  S S E  S S  
------------------------------|------------------------------|
----------------0-------------|------------------------------|
--0--2-2-2--2-2----2-2-2--2-2-|------------------------------|
--0--0-0-0--0-0-0--0-0-0--0-0-|--1--3-3-3--3-3-1--3-3-3--3-3-|
------------------------------|--1--1-1-1--1-1-1--1-1-1--1-1-|
------------------------------|------------------------------|


  E  S S E  S S E  S S E  S S    E  S S E  S S S S E  E  S S  
------------------------------|------------------------------|
------------------------------|------------------------------|
--2--0-0-0--0-0-2--0-0-0--0-0-|-----0-0-0--0-0-2-0-0--0--0-0-|
------------------------------|--3---------------------------|
--3--3-3-3--3-3-3--3-3-3--3-3-|--3--3-3-3--3-3-3-3-3--3--3-3-|
------------------------------|------------------------------|


  E  S S E  S S S S E  E  S S    E  S S E  S S S S E  E  S S  
------------------------------|------------------------------|
------------------------------|------------------------------|
-----0-0-0--0-0-2-0-0--0--0-0-|-----0-0-0--0-0-2-0-0--0--0-0-|
--3---------------------------|--3---------------------------|
--3--3-3-3--3-3-3-3-3--3--3-3-|--3--3-3-3--3-3-3-3-3--3--3-3-|
------------------------------|------------------------------|


  E  S S E  S S S S E  E  S S    E  S S E  S S E  S S S S E   
------------------------------|------------------------------|
----------------0-------------|-----1-1-1--1-1-3--1-1-1-1-1--|
--0--2-2-2--2-2---2-2--2--2-2-|--3---------------------------|
--0--0-0-0--0-0-0-0-0--0--0-0-|--3--3-3-3--3-3-3--3-3-3-3-3--|
------------------------------|------------------------------|
------------------------------|------------------------------|


  E  S S E  S S E  S S S S E     E  S S E  S S E  S S S S E   
----------------0-------------|-----0-0-0--0-0-2--0-0-0-0-0--|
--1--3-3-3--3-3----3-3-3-3-3--|--3---------------------------|
--0--0-0-0--0-0-0--0-0-0-0-0--|--2--2-2-2--2-2-2--2-2-2-2-2--|
------------------------------|------------------------------|
------------------------------|------------------------------|
------------------------------|------------------------------|


  E  S S E  S S E  S S S S E     E  S S E  S S E  S S S S E   
------------------------------|------------------------------|
-----1-1-1--1-1-3--1-1-1-1-1--|-----1-1-1--1-1-3--1-1-1-1-1--|
--3---------------------------|--3---------------------------|
--3--3-3-3--3-3-3--3-3-3-3-3--|--3--3-3-3--3-3-3--3-3-3-3-3--|
------------------------------|------------------------------|
------------------------------|------------------------------|


  Q    Q    E  E  E  E     E  E  E  Q.     S S E     E  E  E  Q    E  Q     
-------0----0-----0--2--|-------------------------|--0--2--0--2----0--2----|
------------------------|--3--2-------------------|------------------------|
--2------------2--------|--------2---------2-0----|------------------------|
------------------------|-----------4----------2--|------------------------|
------------------------|-------------------------|------------------------|
------------------------|-------------------------|------------------------|


  E  E  E  Q    E  Q       E  E  E  Q    E  Q     
--2--5--2--5----2--5----|--2--5--2--7-------5----|
------------------------|----------------7-------|
------------------------|------------------------|
------------------------|------------------------|
------------------------|------------------------|
------------------------|------------------------|


  S S S S S S S S S S S S S S S S    S S S S S S S S S Q    E  S   
--5-3-2-0---------0---------------|------0-2-3-5-0-3-5-----------||
----------3-1-0-----3-1-----------|--1-3-------------------------||
----------------2-------2-0---0-2-|------------------------------||
----------------------------2-----|------------------------------||
----------------------------------|------------------------------||
----------------------------------|------------------------------||




Duration Legend
---------------
W - whole
H - half
Q - quarter
E - 8th
S - 16th
T - 32nd
X - 64th
. - note dotted
|-n-|  - n-tuplets


Tablature Legend
----------------
L - tied note
x - dead note
g - grace note
(n) - ghost note
> - accentuded note
NH - natural harmonic
AH - artificial harmonic
TH - tapped harmonic
SH - semi harmonic
PH - pitch harmonic
h - hammer on
p - pull off
b - bend
br - bendRelease
pb - preBend
pbr - preBendRelease
brb - bendReleaseBend
\n/ - tremolo bar dip
\n - tremolo bar dive
-/n - tremolo bar Release up
/n\ - tremolo bar inverted dip
/n - tremolo bar return
-\n - tremolo bar Release down
S - shift slide
s - legato slide
/ -  slide into from below or out of upwards
\ -  slide into from above or out of downwards
~ - vibrato
W - wide vibrato
tr - trill
TP - tremolo picking
T - tapping
S - slap
P - pop
< - fade in
^ - brush up
v - brush down


            
            
Suggest correction
Creating personal tab
Creating personal tab
You can edit any tab online and save it as your Personal.

You can edit, replace or remove any tab part or add personal notes – all changes will be seen only by you.

Personal tabs can be accessed anytime from any device, even offline.
Learn more »
Give kudos to tab author, rate the tab!
1 2 3 4 5
comments
print report bad tab
guest
You may want to rate the tab now too:
select rating
Wanna post a correction for this tab? Suggest correction