Oops, an error
Loading. Please wait.

Ocean tab

version 1
version 1

Whole song

Interactive

3,475 views 45 this week
1 commentread comment
1 2 3 4 5
x 11
add to favorites
×
Save as Personal and add changes to this tab that will be seen only by you. Learn more ›
×
You can save this tab as Personal to edit and correct it or add notes. All changes will be seen only by you. Learn more »
launch autoscroll
font size
0
reset
how to read this tab
guitar tuner
edit
Autoscroll
slow
fast
+/-
esc
set tempo
stop
This tab is from the 2012 studio version - https://www.youtube.com/watch?v=jdYJf_ybyVo
Tuning:  CGCGCE


Intro 

1)
e|--3-3-3~---3-3-3---3-------------3p0---0---0---------------------------------------------------------------|
B|--0-0-0~---0-0-0---0---------------0---------4--0--2---2h4p2p0---------0-----------------------------------|
G|--0-0-0~---0-0-0---0---------------------------------------------0h4------4p2p0--------------------------0-|
D|--0-0-0~---0-0-0---0---------------------------------------------------------------0h2p0----4p2h4----------|
A|--0-0-0~---0-0-0---0---------------------------------------------------------------------------------------|
E|--0-0-0~---0-0-0---0---------------0-----------------------------------------------------------------0-----|

2)
e|--------------------------------------------------------------------------------------------------------|
B|--------------------------------------------------------------------------------------------------------|
G|--------------------------------------------------------------------------------------------------------|
D|--4p2p0---2p0h2-----------2-----2-----2-----2~-------------------------0h2p0--0h4--(4)--4h5p4p0---2/4---|
A|---------------------------------------------------------------0h2h5------------------------------------|
E|----------------------0-0---0-0---0-0---0-0-------------------------------------------------------------|

3)
e|-------------------------------------------------------------------------------------------|
B|-------------------------------------------------------------------------------------------|
G|---0---------------------------------------------------------------------------------------|
D|------4\2p0--0h2--2/4\2p0---------0--------0----------0-----0-----0-----0------0-----------|
A|----------------------------0h2------2/5---------5-5----5-5---5-5---5-5----5-5----55~------|
E|-------------------------------------------------------------------------------------------|

4)
e|---------------------------------------8----------10----------12----------12----------12---------12-------|
B|--------------------------0--------------------------------------------------------------12---------12----|
G|------------------------------0h5--9-------9h10-------10h12-------12----------12------------------------0-|
D|---------0h4p0--0h5--9-----------------------------------------------------------0------------------------|
A|-0h4h5----------------------------------------------------------------------------------------------------|
E|-----------------------------------------------------------------------0----------------------0-----------|

5)
e|-12-----------12-----------12--------------12------------12-------------12----------12------------12-------|
B|-----------------------------------------------------------------------------------------------------------|
G|----12-----------12------------12--------------12------------12-------------12----------12-----------12----|
D|-----------------------------------0----------------------------0---------------------------0--------------|
A|-----------------------------------------------------------------------------------------------------------|
E|--------0------------0-------------------------------0-------------------------0------------------------0--|

6)
e|---12----------12------------12----------------12---------------12------------12----------------12----12--|
B|------------------------------------------------------------------------------------------------0------0--|
G|-------12-----------12------------12---------------12---------------12------------12------------------12--|
D|-----------0---------------------------0---------------------------------0-----------------------------0--|
A|-------------------------------------------------------------------------------------------------------0--|
E|------------------------0-------------------------------0-----------------------------0----------------0--|

7)
e|---10------------10------------10---------------10---------------10-------------10--------------10---------|
B|-----------------------------------------------------------------------------------------------------------|
G|-------10-----------10------------10----------------10---------------10-------------10--------------10-----|
D|------------------------0-------------------------------0-------------------------------0------------------|
A|-----------------------------------------------------------------------------------------------------------|
E|------------0---------------------------0--------------------------------0-------------------------------0-|

8)
e|---10-------------10----------------10---------------10------------------10~-----|
B|--------------------------------------------------------------------------0~-----|
G|-------10--------------10---------------10---------------10--------------10~-----|
D|-----------0--------------------------------0-----------------------------0~-----|
A|--------------------------------------------------------------------------0~-----|
E|----------------------------0----------------------------------0----------0~-----|

9)
e|---7----------7------------7--------------7-----------7-------------7-----------|
B|--------------------------------------------------------------------------------|
G|------7----------7------------7--------------7------------7-------------7-------|
D|--------------------0----------------------------------------0------------------|
A|--------------------------------------------------------------------------------|
E|---------0-----------------------0--------------0--------------------------0----|

10)
e|---7---------8--------------8--------------8-------------7--------------7------------------------|
B|-------------------------------------------------------------------------------------------------|
G|-------7/9--------9-------------9----------------9\7---------7--------------7-------7------7\5---|
D|------------------------------------0----------------------------0--------------0---0------------|
A|-------------------------------------------------------------------------------------------------|
E|----------------------0--------------------------------------------------------------------------|

11)
e|---5-----------------5--------------5--------------3--------------3-------------3------------|
B|---------------------------------------------------------------------------------------------|
G|-------5----------------5---------------5\4------------4--------------4-------------4--------|
D|---------------------------0-------------------------------0----------------------------0----|
A|---------------------------------------------------------------------------------------------|
E|------------0-------------------------------------------------------------0------------------|

12)
e|---3-------------3-----------3----3\1p0----0---0h1p0---0h1p0---0h1p0---0h1p0---0h1p0---0h1p0---0h1p0---|
B|-------------------------------------------------------------------------------------------------------|
G|-------4------------4-------------4\2p0----0---0h2p0---0h2p0---0h2p0---0h2p0---0h2p0---0h2p0---0h2p0---|
D|----------0--------------------------------------------------------------------------------------------|
A|-------------------------------------------------------------------------------------------------------|
E|-----------------------0-----------------------0-------0-------0-------0-------0-------0-------0-------|

13)
e|---0h1---3------1-----0h1---0h1---0h1---0h1p0-----------0-----------------------------------------------|
B|--------------------------------------------------------------------------------------------------------|
G|---0h2---4------2-----0h2---0h2---0h2---0h2p0----0h2/4------4\2p0--------0------------------------------|
D|--------------------------------------------------------------------0h4-----4\2p0h2p0h2/4\2p0h2p0h2~~---|
A|--------------------------------------------------------------------------------------------------------|
E|---0-----0------------0-----0-----0-----0---------------------------------------------------------------|


Tapping section (tap bottom notes with strumming hand)

14)
e|-----------------------------------------------------------------------------------------------------------|
B|-----------------------------------------------------------------------------------------------------------|
G|-----------------------------------------------------------------------------------------------------------|
D|-0---4\2p0h2p0h4\2p0h2-----2p0h4\2p0-----------------2p0h4---2p0h2--------2p0h4\2p0---------2p0h4\2p0------|
A|------------------------------------2p0h2-----0h2/4p0--------------------------------2------------------2--|
E|-----9---------------------5------------------0-----------------------7------------------9-----------------|
      
15)
e|-----------------------------------------------------------------------------------------------------------|
B|-------------------------------------------------------------------------------------------------------0---|
G|---------------------------------------2p0h4p2p0h2-----------2p0h4p2p0h2p0h2p0-----------2p0h4p2p0h5\4p0h4-|
D|-------2p0h4\2p0h2p0---------2p0h4p0-----------------------------------------------------------------------|
A|-----------------------------------------------------------------------------------------------------------|
E|--5----------------------0------------------------------7---------------------------9----------------------|

16)
e|---------------------------------------------------------------------------------------------------------|
B|------------------------------------------------0h2p0h2----------2p0h4p2p0-------------------2p0h4p2p0---|
G|-------2p0h4/5\4p0h2p0------------------0h2p0h4p0---------------------------4p0h4p0----------------------|
D|------------------------2-------0h2h4--------------------------------------------------------------------|
A|---------------------------------------------------------------------------------------------------------|
E|---5----------------------------0---------------------------7---------------------------9----------------|

17)
e|-----------------------------------------------------------------------------------------------------------|
B|-----------------------------------------------------------------------------------------------------------|
G|---4/5\4p0h2p0---------------------------------------------------------------------------------------------|
D|-----------------2p0---------2p0h4p2p0h2p0h2p0----4p2p0h2p0h4p2p0h2p0----5\4p0h2p0h2p0h2p0h4---0h2p0h2p0h4-|
A|-----------------------------------------------------------------------------------------------------------|
E|-------------------------5------------------------0----------------------9---------------------------------|

18)
e|---------------------------------------------|
B|---------------------------------------------|
G|---------------------------------------------|
D|---0h2p0h2p0h4---0h2p0h4---0h2p0h2---(2)p0---|
A|---------------------------------------------|
E|---------------------------------------------|


Percussive section (tap guitar)

19)
e|--0-----0-0-----------0-0------0-0---------------0-0-----0-----0-0-----------0-0------0-0---------------0-0|
B|--0-----0-0-----------0-0------0-0---------------0-0-----0-----0-0-----------0-0------0-0---------------0-0|
G|--0h5---0-0--------5--0-0---5--0-0---5-------5---0-0-----0h5---0-0--------5--0-0---5--0-0---5-------5---0-0|
D|--0-----0-0-----------0-0------0-0---------------0-0-----0-----0-0-----------0-0------0-0---------------0-0|
A|--0h5---0-0---X----5--0-0---5--0-0---5---X---5---0-0-----0h5---0-0---X----5--0-0---5--0-0---5---X---5---0-0|
E|--0-----0-0---X-------0-0------0-0-------X-------0-0-----0-----0-0---X-------0-0------0-0-------X-------0-0|

20)
e|-0-----0-0-----------0-0------0-0---------------0-0---0-----0-0-----------0-0------0-0---------------0-0---|
B|-0-----0-0-----------0-0------0-0---------------0-0---0-----0-0-----------0-0------0-0---------------0-0---|
G|-0h4---0-0--------4--0-0---4--0-0---4-------4---0-0---0h4---0-0--------4--0-0---4--0-0---4-------4---0-0---|
D|-0-----0-0-----------0-0------0-0---------------0-0---0-----0-0-----------0-0------0-0---------------0-0---|
A|-0h4---0-0---X----4--0-0---4--0-0---4---X---4---0-0---0h4---0-0---X----4--0-0---4--0-0---4---X---4---0-0---|
E|-0-----0-0---X-------0-0------0-0-------X-------0-0---0-----0-0---X-------0-0------0-0-------X-------0-0---|

21)
e|--0-----0-0-----------0-0------0-0---------------0-0---0-----0-0-----------0-0------0-0---------------0-0--|
B|--0-----0-0-----------0-0------0-0---------------0-0---0-----0-0-----------0-0------0-0---------------0-0--|
G|--0h5---0-0--------5--0-0---5--0-0---5-------5---0-0---0h5---0-0--------5--0-0---5--0-0---5-------5---0-0--|
D|--0-----0-0-----------0-0------0-0---------------0-0---0-----0-0-----------0-0------0-0---------------0-0--|
A|--0h5---0-0---X----5--0-0---5--0-0---5---X---5---0-0---0h5---0-0---X----5--0-0---5--0-0---5---X---5---0-0--|
E|--0-----0-0---X-------0-0------0-0-------X-------0-0---0-----0-0---X-------0-0------0-0-------X-------0-0--|

22)
e|--0-----0-0-----------0-0------0-0---------------0-0---0-----0-0-----------0-0------0-0---------------0-0--|
B|--0-----0-0-----------0-0------0-0---------------0-0---0-----0-0-----------0-0------0-0---------------0-0--|
G|--0h4---0-0--------4--0-0---4--0-0---4-------4---0-0---0h4---0-0--------4--0-0---4--0-0---4-------4---0-0--|
D|--0-----0-0-----------0-0------0-0---------------0-0---0-----0-0-----------0-0------0-0---------------0-0--|
A|--0h4---0-0---X----4--0-0---4--0-0---4---X---4---0-0---0h4---0-0---X----4--0-0---4--0-0---4---X---4---0-0--|
E|--0-----0-0---X-------0-0------0-0-------X-------0-0---0-----0-0---X-------0-0------0-0-------X-------0-0--|

23)
e|---0-------0-0------------0-0--------0-0---------------0-0----|
B|---0-------0-0------------0-0--------0-0---------------0-0----|
G|---4/9-----0-0--------9---0-0----9---0-0---9-------9---0-0----|
D|---0-------0-0------------0-0--------0-0---------------0-0----|
A|---4/9-----0-0---X----9---0-0----9---0-0---9---X---9---0-0----|
E|---0-------0-0---X--------0-0--------0-0-------X-------0-0----|

24)
e|---0-------0-0------------0-0--------0-0---------------0-0----|
B|---0-------0-0------------0-0--------0-0---------------0-0----|
G|---0-9-----0-0--------9---0-0----9---0-0---9-------9---0-0----|
D|---0-------0-0------------0-0--------0-0---------------0-0----|
A|---0-9-----0-0---X----9---0-0----9---0-0---9---X---9---0-0----|
E|---0-------0-0---X--------0-0--------0-0-------X-------0-0----|

25)
e|---0-------0-0------------0-0--------0-0---------------0---|
B|---0-------0-0------------0-0--------0-0---------------0---|
G|---0-7-----0-0--------7---0-0----7---0-0---7-------7---7---|
D|---0-------0-0------------0-0--------0-0---------------0---|
A|---0-7-----0-0---X----7---0-0----7---0-0---7---X---7---7---|
E|---0-------0-0---X--------0-0--------0-0-------X-------0---|

26)
e|---0-------0-0------------0-0--------0-0---------------0-0---|
B|---0-------0-0------------0-0--------0-0---------------0-0---|
G|---7/10----0-0-------10---0-0---10---0-0---10-----10---0-0---|
D|---0-------0-0------------0-0--------0-0---------------0-0---|
A|---7/10----0-0---X---10---0-0---10---0-0---10--X--10---0-0---|
E|---0-------0-0---X--------0-0--------0-0-------X-------0-0---|

27)
e|---0-------0-0------------0-0--------0-0---------------0-0----|
B|---0-------0-0------------0-0--------0-0---------------0-0----|
G|---0-9-----0-0--------9---0-0----9---0-0---9-------9---0-0----|
D|---0-------0-0------------0-0--------0-0---------------0-0----|
A|---0-9-----0-0---X----9---0-0----9---0-0---9---X---9---0-0----|
E|---0-------0-0---X--------0-0--------0-0-------X-------0-0----|

28)
e|---0-------0-0------------0-0--------0-0---------------0-0----|
B|---0-------0-0------------0-0--------0-0---------------0-0----|
G|---0-9-----0-0--------9---0-0----7---0-0---7-------7---0-0----|
D|---0-------0-0------------0-0--------0-0---------------0-0----|
A|---0-9-----0-0---X----9---0-0----7---0-0---7---X---7---0-0----|
E|---0-------0-0---X--------0-0--------0-0-------X-------0-0----|

29)
e|---0-------0-0------------0-0--------0-0---------------0-0----|
B|---0-------0-0------------0-0--------0-0---------------0-0----|
G|---0-5-----0-0--------5---0-0----5---0-0---5-------5---0-0----|
D|---0-------0-0------------0-0--------0-0---------------0-0----|
A|---0-5-----0-0---X----5---0-0----5---0-0---5---X---5---0-0----|
E|---0-------0-0---X--------0-0--------0-0-------X-------0-0----|

30)
e|---0-------0-0------------0-0--------0-0---------------0-0----|
B|---0-------0-0------------0-0--------0-0---------------0-0----|
G|---0-5-----0-0--------5---0-0----5---0-0---5-------5---0-0----|
D|---0-------0-0------------0-0--------0-0---------------0-0----|
A|---0-5-----0-0---X----5---0-0----5---0-0---5---X---5---0-0----|
E|---0-------0-0---X--------0-0--------0-0-------X-------0-0----|

31)
e|---0-------0-0------------0-0--------0-0---------------0----|
B|---0-------0-0------------0-0--------0-0---------------0----|
G|---0-------0-0------------0-0--------0-0---------------0----|
D|---0-------0-0------------0-0--------0-0---------------0----|
A|---0-5-----0-0---X----5---0-0----5---0-0---5---X---5---5----|
E|---0-5-----0-0---X----5---0-0----5---0-0---5---X---5---5----|

32)
e|---0-------0-0------------0-0--------0-0---------------0-0---|
B|---0-------0-0------------0-0--------0-0---------------0-0---|
G|---0-------0-0------------0-0--------0-0---------------0-0---|
D|---0-------0-0------------0-0--------0-0---------------0-0---|
A|---5/9-----0-0---X----9---0-0----9---0-0---9---X---9---0-0---|
E|---5/9-----0-0---X----9---0-0----9---0-0---9---X---9---0-0---|

33)
e|---0-------0-0------------0-0--------0-0---------------0-0---|
B|---0-9-----0-0--------9---0-0----9---0-0---9-------9---0-0---|
G|---0-------0-0------------0-0--------0-0---------------0-0---|
D|---0-9-----0-0--------9---0-0----9---0-0---9-------9---0-0---|
A|---0-------0-0---X--------0-0--------0-0-------X-------0-0---|
E|---0-------0-0---X--------0-0--------0-0-------X-------0-0---|

34)
e|---0-------0-0------------0-0--------0-0---------------0-0---|
B|---0-7-----0-0--------7---0-0----4---0-0---4-------4---0-0---|
G|---0-------0-0------------0-0--------0-0---------------0-0---|
D|---0-7-----0-0--------7---0-0----4---0-0---4-------4---0-0---|
A|---0-------0-0---X--------0-0--------0-0-------X-------0-0---|
E|---0-------0-0---X--------0-0--------0-0-------X-------0-0---|

35)
e|---0-------0-0------------0-0--------0-0---------------0----|
B|---0-------0-0------------0-0--------0-0---------------0----|
G|---0-------0-0------------0-0--------0-0---------------0----|
D|---0-------0-0------------0-0--------0-0---------------0----|
A|---0-5-----0-0---X----5---0-0----5---0-0---5---X---5---5----|
E|---0-5-----0-0---X----5---0-0----5---0-0---5---X---5---5----|

36)
e|---0-------0-0------------0-0--------0-0---------------0-0---|
B|---0-------0-0------------0-0--------0-0---------------0-0---|
G|---0-------0-0------------0-0--------0-0---------------0-0---|
D|---0-------0-0------------0-0--------0-0---------------0-0---|
A|---5/9-----0-0---X----9---0-0----9---0-0---9---X---9---0-0---|
E|---5/9-----0-0---X----9---0-0----9---0-0---9---X---9---0-0---|

37)
e|---0-------0-0------------0-0--------0-0---------------0-0---|
B|---0-9-----0-0--------9---0-0----9---0-0---9-------9---0-0---|
G|---0-------0-0------------0-0--------0-0---------------0-0---|
D|---0-9-----0-0--------9---0-0----9---0-0---9-------9---0-0---|
A|---0-------0-0---X--------0-0--------0-0-------X-------0-0---|
E|---0-------0-0---X--------0-0--------0-0-------X-------0-0---|

38)
e|---0-------0-0------------0-0--------0-0---------------0-0---|
B|---0-12----0-0-------11---0-0----9---0-0---9-------7---0-0---|
G|---0-------0-0------------0-0--------0-0---------------0-0---|
D|---0-12----0-0-------11---0-0----9---0-0---9-------7---0-0---|
A|---0-------0-0---X--------0-0--------0-0-------X-------0-0---|
E|---0-------0-0---X--------0-0--------0-0-------X-------0-0---|

39)
e|---0-------0-0------------0-0--------0-0---------------0----|
B|---0-------0-0------------0-0--------0-0---------------0----|
G|---0-------0-0------------0-0--------0-0---------------0----|
D|---0-------0-0------------0-0--------0-0---------------0----|
A|---0-5-----0-0---X----5---0-0----5---0-0---5---X---5---5----|
E|---0-5-----0-0---X----5---0-0----5---0-0---5---X---5---5----|

40)
e|---0-------0-0------------0-0--------0-0---------------0-0---|
B|---0-------0-0------------0-0--------0-0---------------0-0---|
G|---0-------0-0------------0-0--------0-0---------------0-0---|
D|---0-------0-0------------0-0--------0-0---------------0-0---|
A|---5/9-----0-0---X----9---0-0----9---0-0---9---X---9---0-0---|
E|---5/9-----0-0---X----9---0-0----9---0-0---9---X---9---0-0---|

41)
e|---0-------0-0------------0-0--------0-0---------------0----|
B|---0-------0-0------------0-0--------0-0---------------0----|
G|---0-------0-0------------0-0--------0-0---------------0----|
D|---0-------0-0------------0-0--------0-0---------------0----|
A|---0-7-----0-0---X----7---0-0----7---0-0---7---X---7---7----|
E|---0-7-----0-0---X----7---0-0----7---0-0---7---X---7---7----|

42)
e|---0-------0-0------------0-0--------0-0---------------0----|
B|---0-------0-0------------0-0--------0-0---------------0----|
G|---0-------0-0------------0-0--------0-0---------------0----|
D|---0-------0-0------------0-0--------0-0---------------0----|
A|---0-7-----0-0---X----7---0-0----7---0-0---7---X---7---7----|
E|---0-7-----0-0---X----7---0-0----7---0-0---7---X---7---7----|

43)
e|---0-------0-0------------0-0--------0-0---------------0----|
B|---0-------0-0------------0-0--------0-0---------------0----|
G|---0-------0-0------------0-0--------0-0---------------0----|
D|---0-------0-0------------0-0--------0-0---------------0----|
A|---0-5-----0-0---X----5---0-0----5---0-0---5---X---5---5----|
E|---0-5-----0-0---X----5---0-0----5---0-0---5---X---5---5----|

44)
e|---0-------0-0------------0-0--------0-0---------------0----|
B|---0-------0-0------------0-0--------0-0---------------0----|
G|---0-------0-0------------0-0--------0-0---------------0----|
D|---0-------0-0------------0-0--------0-0---------------0----|
A|---5/7-----0-0---X----7---0-0----7---0-0---7---X---7---7----|
E|---5/7-----0-0---X----7---0-0----7---0-0---7---X---7---7----|


Perussion ends.  Tap bottom note with strumming hand

45)
e|---0--------------------------------------------------------------|
B|---0--------------------------------------------------------------|
G|---0h2p0h2p0h2p0h2p0h2p0h2p0h2p0h2p0h2p0h2p0h2p0h2p0h2p0h2p0h2----|
D|---0h2p0h2p0h2p0h2p0h2p0h2p0h2p0h2p0h2p0h2p0h2p0h2p0h2p0h2p0h2----|
A|---0--------------------------------------------------------------|
E|---0--------------------------------------------------------------|

46)
e|------------------------------------------------------------------|
B|------------------------------------------------------------------|
G|---0h2p0h2p0h2p0h2p0h2p0h2p0h2p0h2p0h2p0h2p0h2p0h2p0h2p0h2p0h2----|
D|---0h2p0h2p0h2p0h2p0h2p0h2p0h2p0h2p0h2p0h2p0h2p0h2p0h2p0h2p0h2----|
A|---0--------------------------------------------------------------|
E|---0--------------------------------------------------------------|

47)
e|----------------------------------------------------------------------|
B|----------------------------------------------------------------------|
G|---0h2p0h2p0h2p0h2p0h2p0h2p0h2p0h2p0h2p0h2p0h2p0h2p0h2p0h2p0h2p0h2----|
D|---0h2p0h2p0h2p0h2p0h2p0h2p0h2p0h2p0h2p0h2p0h2p0h2p0h2p0h2p0h2p0h2----|
A|----------------------------------------------------------------------|
E|---7--------------9---------------5-----------------------------------|

48)
e|----------------------------------------------------------------------|
B|----------------------------------------------------------------------|
G|---0h2p0h2p0h2p0h2p0h2p0h2p0h2p0h2p0h2p0h2p0h2p0h2p0h2p0h2p0h2p0h2----|
D|---0h2p0h2p0h2p0h2p0h2p0h2p0h2p0h2p0h2p0h2p0h2p0h2p0h2p0h2p0h2p0h2----|
A|----------------------------------------------------------------------|
E|---7--------------9---------------5-----------------------------------|

49)
e|----------------------------------------------------------------------|
B|----------------------------------------------------------------------|
G|---0h2p0h2p0h2p0h2p0h2p0h2p0h2p0h2p0h2p0h2p0h2p0h2p0h2p0h2p0h2p0h2----|
D|---0h2p0h2p0h2p0h2p0h2p0h2p0h2p0h2p0h2p0h2p0h2p0h2p0h2p0h2p0h2p0h2----|
A|----------------------------------------------------------------------|
E|---7--------------9---------------5-----------------------------------|

50)
e|----------------------------------------------------------------------|
B|----------------------------------------------------------------------|
G|---0h2p0h2p0h2p0h2p0h2p0h2p0h2p0h2p0h2p0h2p0h2p0h2p0h2p0h2p0h2p0h2----|
D|---0h2p0h2p0h2p0h2p0h2p0h2p0h2p0h2p0h2p0h2p0h2p0h2p0h2p0h2p0h2p0h2----|
A|----------------------------------------------------------------------|
E|---7--------------9---------------5-----------------------------------|

51)
e|----------------------------------------------------------------------|
B|----------------------------------------------------------------------|
G|---0h2p0h2p0h2p0h2p0h2p0h2p0h2p0h2p0h2p0h2p0h2p0h2p0h2p0h2p0h2p0h2----|
D|---0h2p0h2p0h2p0h2p0h2p0h2p0h2p0h2p0h2p0h2p0h2p0h2p0h2p0h2p0h2p0h2----|
A|----------------------------------------------------------------------|
E|---5------------------------------5-----------------------------------|

52)
e|------------------------------------------------------------------------|
B|------------------------------------------------------------------------|
G|---0h4p0h4p0h4p0h4p0h4p0h4p0h4p0h4---0h4p0h4p0h4p0h4p0h4p0h4p0h4p0h4----|
D|---0h4p0h4p0h4p0h4p0h4p0h4p0h4p0h4---0h4p0h4p0h4p0h4p0h4p0h4p0h4p0h4----|
A|------------------------------------------------------------------------|
E|---9---------------------------------9---------------7------------------|

53)
e|----------------------------------------------------------------------|
B|----------------------------------------------------------------------|
G|---0h2p0h2p0h2p0h2p0h2p0h2p0h2p0h2p0h2p0h2p0h2p0h2p0h2p0h2p0h2p0h2----|
D|---0h2p0h2p0h2p0h2p0h2p0h2p0h2p0h2p0h2p0h2p0h2p0h2p0h2p0h2p0h2p0h2----|
A|----------------------------------------------------------------------|
E|---5-----------------------------5----------------7-------------------|

54)
e|------------------------------------------------------------------------|
B|------------------------------------------------------------------------|
G|---0h4p0h4p0h4p0h4p0h4p0h4p0h4p0h4---0h4p0h4p0h4p0h4p0h4p0h4p0h4p0h4----|
D|---0h4p0h4p0h4p0h4p0h4p0h4p0h4p0h4---0h4p0h4p0h4p0h4p0h4p0h4p0h4p0h4----|
A|------------------------------------------------------------------------|
E|---9---------------------------------9---------------7------------------|

55)
e|---------------------------------------------------------------------*12---|
B|---------------------------------------------------------------------*12---|
G|---0h2p0h2p0h2p0h2p0h2p0h2p0h2p0h2p0h2p0h2p0h2p0h2p0h2p0h2p0h2p0h2---*12---| *Harmonic
D|---0h2p0h2p0h2p0h2p0h2p0h2p0h2p0h2p0h2p0h2p0h2p0h2p0h2p0h2p0h2p0h2---*12---|
A|---------------------------------------------------------------------*12---|
E|---5-----------------------------5-------7---------9-------11--------*12---|

Back to normal fingerstyle

56)
e|---------------------------------------------------------------------------|
B|-------2-------------2----------------2----2h4p2p2---------0----------0----|
G|-------0-------------0----------------0--------------0h4------4-------4----|
D|--------------------------------------0------------------------------------|
A|---------------------------------------------------------------------------|
E|---0---0------0---0------0--------0-------------------------------0--------|

57)
e|-----------------------------------0--0-----------------------------------------------------0--0-----------|
B|-------0------------0--------------0--0----------0--------------0-------------0-------------0--0---------0-|
G|----------4--------------4---------4--4----------4------------------5--------------5--------5--5---------5-|
D|-----------------------------------0--0----------0------------------------------------------0--0---------0-|
A|-----------------------------------0--0-----------------------------------------------------0--0-----------|
E|-0h4-----------4-------------4-------------4-------------4/5-------------5-------------5------------5------|

58)
e|----------------------------------------------------------------------------|
B|---------0---7-------7-------7----------7---7----7-(7)/2----2/4---------0---|
G|---------0---0-------0-------0----------0---0----0----------0-----------0---|
D|---0-----0-----------0-------0--------------0---------------0---------------|
A|---0------------------------------------------------------------------------|
E|---0---------0-----------0-------0------0--------0-----------------0--------|

59)
e|-------------------------------------------0--0--------------|
B|-----------0------------0------------------0--0----------0---|
G|--------------0----------------0-----------0--0----------0---|
D|-------------------------------------------0--0----------0---|
A|-------------------------------------------0--0--------------|
E|---0h4-------------4----------------4--------------4---------|

60)
e|---------------------------------------------0--0--------------------------------------------------------|
B|----------0----------------0-----------------0--0--------------------------------------0-------------0---|
G|--------------0-------------------0----------0--0-------------0-----------0h4p0--0h5-------5h(5)/7-------|
D|---------------------------------------------0--0-------------0----0h4h5---------------------------------|
A|---------------------------------------------0--0---------0----------------------------------------------|
E|---4/5--------------5------------------5-------------5----0----------------------------------------------|

61)
e|----------------------------------------------------------------0--0-------------|
B|-------------------------0------------0------------0------------0--0--------0----|
G|---7---7\2---2---2-------0----------------0------------0--------0--0--------0----|
D|---0---0-----0---0-------0--------------------------------------0--0--------0----|
A|-------0-----0---0----------------------------------------------0--0-------------|
E|---------------------0---------0h4------------4------------4------------4--------|

62)
e|----------------------------------------0--0-----------------------------------------------------|
B|----------0------------0----------------0--0---------------2---2h4p2p0---------0-----------------|
G|-------------0-------------0------------0--0---------------0-------------0h4-------0h2p0---------|
D|----------------------------------------0--0---------------0-------------------------------2/4---|
A|----------------------------------------0--0-----------------------------------------------------|
E|---4/5-----------5----------------5-------------5-----0------------------------------------------|

63)
e|--------------------------------------------------------------------------------0--0--------------|
B|--------------------------------------------0-----------0------------0----------0--0---------0----|
G|---0----------------------------------------0---------------0-----------0-------0--0---------0----|
D|-------4\2p0---2/4----2p0---2---2p0---------0-----------------------------------0--0---------0----|
A|---------------0------0-----0---0-----------------------------------------------0--0--------------|
E|---------------0------0-----0---0------0---------0h4------------4-----------4-----------4---------|

64)
e|------------------------------------0--0-------------------------------------------------------------------|
B|---------0----------0---------------0--0---------0---------------------------------------------------7---7-|
G|------------0--------------0--------0--0---------0-------------9---9---9---9---------------9---9-----9---9-|
D|------------------------------------0--0---------0-------------0---0---0---0-------0---0---0---0-----0---0-|
A|------------------------------------0--0---------------------------0---0---0-------0---0---0---0-----------|
E|---4/5----------5--------------5------------5---------5/9--------------9-----------9---9---9---9-----------|

65)
e|--------------------------------------------------------------------|
B|---7---7---7---7---7---7---7---7---7---7---7---7---7---7---7---7----|
G|---9---9---9---9---9---9---9---9---9---9---9---9---9---9---9---9----|
D|---0---0---0---0---0---0---0---0---0---0---0---0---0---0---0---0----|
A|---0---0---0---0---0---0---0---0---0---0---0---0---0---0---0---0----|
E|-------------------9---9---9---9---9---9---9---9---9---9---9---9----|

66)
e|----------------------------------------------------------------------------------------------------------|
B|-----------------5------------------5---5---5---5----5---5---5---5---5---5-------------------7---7---0----|
G|-------------7---7--------------7---7---7---7---7----7---7---7---7---7---7----5---5---5------5---5---0----|
D|------------------------------------0---0---0---0----0---0---0---0---0---0----0---0---0------0---0---0----|
A|--------------------------------------------0---0----0---0---0---0---0---0----0---0---0------0---0---0----|
E|---9\7---7---7---7------7---7---7-----------7---7----7---7---7---7---7---7----7---7---7------7---7--------|

67)
e|------------------------------------------------------------------------------------------------------|
B|---5---4---0h4p0---------0----------------------------------------------------------------------------|
G|---0---------------0h5------0h4p0------------0--------------------------------------------------------|
D|---0--------------------------------0h5----------0h4p0-------------0---0---0---0----0----0---0---0----|
A|---------------------------------------------------------0h5---5---5---5---5---4----4----4---4---4----|
E|---5-----------------------------------------------------------5---5---5---5---5----5----5---5---5----|

68)
e|------------------------------------------------------------------|
B|------------------------------------------------------------------|
G|---0-----0---0---0---0---0---0---0---0---0---0---0---0---0---0----|
D|---0-----0---0---0---0---0---0---0---0---0---0---0---0---0---0----|
A|---4-----4---4---4---4---4---4---4---4---4---4---4---4---4---4----|
E|---5-----5---5---5---5---5---5---5---5---5---5---5---5---5---5----|

69)
e|-----------------------------------------------------------------|
B|-----------------------------------------------------------------|
G|---0------0---0---0---0----0-----0---0---0---0---0------0---0----|
D|---0------0---0---0---0----0-----0---0---0---0---0------0---0----|
A|---4-5----5---5---5---5----5/7---7---7---7---7---7------7---7----|
E|---5------5---5---5---5----5/7---7---7---7---7---7------7---7----|

70)
e|----------------------------------------------------------0-----------------------------0--0----|
B|---0-----0---0---0---0---0---0-----0---0---0---0---0------0-----------------------------0--0----|
G|---0-----0---0---0---0---0---0-----0---0---0---0---0------0------0---0---0------0---0---0--0----|
D|---0-----0---0---0---0---0---0-----0---0---0---0---0------0------0---0---0------0---0---0--0----|
A|---9-----9---9---9---9---9---9-----9---9---9---9---9------9------9---9---9------9---9---0--0----|
E|---9-----9---9---9---9---9---9-----9---9---9---9---9------9------9---9---9------9---9---0--0----|

71)
e|--------------------------------------------------------0---------------------------------0-----|
B|---0-----0---0---0---0---0------0---0---0---0---0-------0---------------------------------0-----|
G|---0-----0---0---0---0---0------0---0---0---0---0-------0-------0----0----0-------0---0---0-----|
D|---0-----0---0---0---0---0------0---0---0---0---0-------0-------0----0----0-------0---0---0-----|
A|---7-----7---7---7---7---7------7---7---7---7---7-------7-------7----7----7-------7---7---0-----|
E|---7-----7---7---7---7---7------7---7---7---7---7-------7-------7----7----7-------7---7---0-----|

72)
e|--------------------------------------------------------------------------------------------------|
B|---5----4----0h4p0---------0----------------------------------------------------------------------|
G|---0-----------------0h5-------0h4p0-----------0--------------------------------------------------|
D|---0-----------------------------------0h5----------0h4p0--------------0---0---0---0----0----0----|
A|-------------------------------------------------------------0h5---5---5---5---5---4----4----0----|
E|---5---------------------------------------------------------------5---5---5---5---5----5----0----|

73)
e|-----------------------------------------------------------------------------------------------|
B|---5---4---0h4p0---------0---------------------------------------------------------------------|
G|---0---------------0h5-------0h4p0-----------0-------------------------------------------------|
D|---0----------------------------------0h5--------0h4p0-------------0---0---0---0-----0----0----|
A|---------------------------------------------------------0h5---5---5---5---5---4-----4----0----|
E|---5-----------------------------------------------------------5---5---5---5---5-----5----0----|

74)
e|-----------------------------------------------------------------------------------------------|
B|---5---4---0h4p0---------0---------------------------------------------------------------------|
G|---0---------------0h5-------0h4p0-----------0-------------------------------------------------|
D|---0----------------------------------0h5--------0h4p0-------------0---0---0---0-----0----0----|
A|---------------------------------------------------------0h5---5---5---5---5---4-----4----0----|
E|---5-----------------------------------------------------------5---5---5---5---5-----5----0----|

75)
e|-----------------------------------------------------------------------------------------------|
B|---5---4---0h4p0---------0---------------------------------------------------------------------|
G|---0---------------0h5-------0h4p0-----------0-------------------------------------------------|
D|---0----------------------------------0h5--------0h4p0-------------0---0---0---0-----0~--------|
A|---------------------------------------------------------0h5---5---5---5---5---4-----4~--------|
E|---5-----------------------------------------------------------5---5---5---5---5-----5~--------|

Pause. Then tempo increases for this fast part

76)
e|---------------------------------------------------------------------|
B|---------2---0---------0h2p0---4p2p0--------0h2p0---2---0-------0----|
G|---------0--------4--------------------0--------------------4--------|
D|---------------------------------------------------------------------|
A|---0-----------------------------------------------------------------|
E|---0-----------------------------------------------------------------|

77)
e|------------------------------------------------------------3p0----|
B|--------2---0-------0h2p0---4p2p0-------0h2p0---2---0--------------|
G|--------0-------4-------------------0-------------------4----------|
D|-------------------------------------------------------------------|
A|---0---------------------------------------------------------------|
E|---0---------------------------------------------------------------|

78)
e|--------3p0--------------------------------------------------------------|
B|--------------4p2p0-------0h2p0---------0---------0---------0-------0----|
G|----------------------0-----------4/5-------4/5-------4/5-------5--------|
D|-------------------------------------------------------------------------|
A|---0---------------------------------------------------------------------|
E|---0------------------------------0---------0---------0------------------|

79)
e|-----------------------------------------------------------------------|
B|--------------------4p0-------0h4p0---4---0----------------------------|
G|------------0h4h5---------0-------------------5p4p0--------------------|
D|------------------------------------------------------5p4p0-------0----|
A|---0---0------------------------------------------------------5--------|
E|---0---0---------------------------------------------------------------|

80)
e|-----------------------------------------------------------------|
B|--------2---0-------0h2p0---4p2p0-------0h2p0---2---0-------0----|
G|--------0-------4-------------------0-------------------4--------|
D|-----------------------------------------------------------------|
A|---0-------------------------------------------------------------|
E|---0-------------------------------------------------------------|

81)
e|-------------------------------------------------------------3p0----|
B|--------2---0-------0h2p0---4p2p0-------0h2p0---2---0---------------|
G|--------0-------4-------------------0-------------------4-----------|
D|--------------------------------------------------------------------|
A|---0----------------------------------------------------------------|
E|---0----------------------------------------------------------------|

82)
e|-------3p0--------------------------------------------------------|
B|-------------4p2p0-------0h2p0---2---0----------------------------|
G|---------------------0-------------------4p2p0--------------------|
D|-------------------------------------------------4p2p0-------0----|
A|---0-----------------------------------------------------4--------|
E|---0--------------------------------------------------------------|

83)
e|------------------------------------------------------------------------------|
B|---------------------------------------------------------------------0---0----|
G|-------------------------------------------------0h4p0-------0h4h5---5---5----|
D|-------------------4p0-------0h4p0-------0h4h5-----------0-----------0---0----|
A|---0---0---0h4h5---------0-----------0----------------------------------------|
E|---0---0----------------------------------------------------------------------|

84)
e|---------------------------0---------------------------------0--------|
B|-----------0--------------------------------0--------------------4----|
G|---------------5---------------5----------------4---------------------|
D|----------------------------------------------------------------------|
A|----------------------------------------------------------------------|
E|---4---4-----------4---4-----------5---5-------------5---5------------|

85)
e|----------------------------------------------------------------------|
B|-------------------4p0-------0h4p0---7-------0h4p0---0h4p0-------0----|
G|-----------0h4h5---------0---------------0-------------------5--------|
D|----------------------------------------------------------------------|
A|----------------------------------------------------------------------|
E|---0---0--------------------------------------------------------------|

86)
e|---------------------------0-------------------------------0--------|
B|-----------0-------------------------------0------------------------|
G|---------------5---------------5---------------4---------------4----|
D|--------------------------------------------------------------------|
A|--------------------------------------------------------------------|
E|---4---4-----------4---4-----------5---5-----------5---5------------|

87)
e|---------------------------------------------------------------------|
B|------------------4p0-------0h4p0---4---0----------------------------|
G|----------0h4h5---------0-------------------5p4p0--------------------|
D|----------------------------------------------------5p4p0-------0----|
A|------------------------------------------------------------5--------|
E|--0---0--------------------------------------------------------------|

88)
e|----------------------------0--------------------------------0--------|
B|-----------0--------------------0-----------0--------------------0----|
G|---------------0--------------------------------0---------------------|
D|----------------------------------------------------------------------|
A|---5---5-----------5---5------------4---4------------4---4------------|
E|---4---4-----------4---4------------5---5------------5---5------------|

89)
e|--------------------------------------------------------------------------|
B|-----------------0h2p0-------0h2p0---4---0---------0---------0-------0----|
G|-----------2h4-----------0-----------0-------0h4-------0h4-------4--------|
D|--------------------------------------------------------------------------|
A|--------------------------------------------------------------------------|
E|---0---0-----------------------------0------------------------------------|

90)
e|---------------------------0--------------------------------0--------|
B|-----------0--------------------------------0------------------------|
G|---------------4---------------4----------------5---------------5----|
D|---------------------------------------------------------------------|
A|---------------------------------------------------------------------|
E|---4---4-----------4---4------------5---5-----------5---5------------|

91)
e|--------------------------0-------------------------------------------------------0------------------------|
B|----------2-------------------------4----------------4------------5-------------------5-----------5--------|
G|----------4---4---------------4/5-------5----------------5(5)\7-------7--------------------------------7---|
D|-----------------------------------------------------------------------------------------------------------|
A|-----------------------------------------------------------------------------------------------------------|
E|--0--0-------------0--0----------------------0--0-------------------------0--0-------------0--0------------|

92)
e|-----------0----------------------------------------------------------------------------------------|
B|---------------5--------------------7---------7----------7---------7---------7---------7-------7----|
G|-----------------------------7h9--------7h9-------7h9--------7h9-------7h9-------7h9-------7--------|
D|-------------------------0--------------------------------------------------------------------------|
A|-------------------------0--------------------------------------------------------------------------|
E|---0---0-----------------0--------------------------------------------------------------------------|

93)
e|--------------------------------------------------------------------|
B|-------9---7---------------7-----------------0-----------------0----|
G|-------7-------9---7---9-----------------9---9-------------5---5----|
D|---0-----------------------------------------0-----------------0----|
A|---0-----------------------------------------0-----------------0----|
E|---0---------------------------0h9---9-----------9\5---5------------|

94)
e|------------------------------------------------------------------------------|
B|--------------7---------7---------7---------7---------7----------7-------7----|
G|--------7h9-------7h9-------7h9-------7h9-------7h9-------7h9--------7--------|
D|---0--------------------------------------------------------------------------|
A|---0--------------------------------------------------------------------------|
E|---0--------------------------------------------------------------------------|

95)
e|-------8---7--------------------------------------------------------|
B|-------7------9---7-------7------------------0-----------------0----|
G|----------------------9------------------9---9-------------5---5----|
D|---------------------------------------------0-----------------0----|
A|---0-----------------------------------------0-----------------0----|
E|---0---0-----------------------0h9---9-----------9\5---5------------|

96)
e|-------8----7-----------------------8---7--------------------|
B|-------7--------9---7-------7-------7-------9---7-------7----|
G|------------------------9---------------------------9--------|
D|---0----------------------------0----------------------------|
A|---0----------------------------0----------------------------|
E|---0---0------------------------0---0------------------------|

97)
e|--------8---7------------------------------------------------------|
B|--------7-------9---7-------7-------------------0-------------0----|
G|------------------------9-------------------9---9---------5---5----|
D|---0--------------------------------------------0-------------0----|
A|---0--------------------------------------------0-------------0----|
E|---0----0-------------------------0h9---9-----------9\5------------|

98)
e|-----------------------------------------------------------------------------------------------------------|
B|------------------9----------------9-----------------7-----------------7------------------5----------------|
G|-------/10---10-------10---------------10----------------9-----------------9-----------------7-------------|
D|---0-------------------------------------------------------------------------------------------------------|
A|---0-------------------------------------------------------------------------------------------------------|
E|---0-----------------------0---0-------------0---0-----------0-----0-----------0---0--------------0---0----|


Aggressive strumming starts here (but be nice to your guitar!)

99)
e|-------------------------------------0---0---0---0---0---0---0---0---0---0---0---0---0---0---0---0---0---0-|
B|-5-------4---4---4---4---4---4---4---5---5---5---5---5---5---5---5---5---5---5---4---4---4---4---4---4---4-|
G|-----7---5---5---5---5---5---5---5---0---0---0---0---0---0---0---0---0---0---0---0---0---0---0---0---0---0-|
D|-------------0---0---0---0---0---0---0---0---0---0---0---0---0---0---0---0---0---0---0---0---0---0---0---0-|
A|---------------------0---0---0---0---0---0---0---0---0---0---0---0---0---0---0---0---0---0---0---0---0---0-|
E|-------------------------------------5---5---5---5---5---5---5---5---5---5---5---5---5---5---5---5---5---5-|

100)
e|---0---0---0---0---0---0---0---0---0---0---0---0---0---0---0---0---0---0---0---0---0---0---0---0---0---0---|
B|---4---4---4---4---0---0---0---0---0---0---0---0---0---0---0---0---0---0---0---0---0---0---0---0---0---0---|
G|---0---0---0---0---5---5---5---5---5---4---4---4---4---4---0---0---0---0---0---0---0---0---0---0---0---0---|
D|---0---0---0---0---0---0---0---0---0---0---0---0---0---0---5---5---5---4---4---4---0---0---0---0---0---0---|
A|---0---0---0---0---0---0---0---0---0---0---0---0---0---0---0---0---0---0---0---0---5---5---5---4---4---4---|
E|---5---5---5---5---5---5---5---5---5---5---5---5---5---5---5---5---5---5---5---5---5---5---5---5---5---5---|

101)
e|---0-----0---0---0---0---0---0---0---0---0---0---0---0---0---0---0---0---0---0---0---0---0----|
B|---0-----0---0---0---0---0---0---0---0---0---0---0---0---0---0---0---0---0---0---0---0---0----|
G|---0-----0---0---0---0---0---0---0---0---0---0---0---0---0---0---0---0---0---0---0---0---0----|
D|---0-----0---0---0---0---0---0---0---0---0---0---0---0---0---0---0---0---0---0---0---0---0----|
A|---4/5---5---5---5---5---5---5---5---5---5---5---7---7---7---7---7---7---7---7---7---7---7----|
E|---0-----0---0---0---0---0---0---0---0---0---0---0---0---0---0---0---0---0---0---0---0---0----|

102)
e|-----------------------------------------------0-----0---0---0---0---0-----0---0---0---0----|
B|-------------0---0---0---0-----0---0---0---0---0-----0---7---7---7---7/9---9---7---7---0----|
G|---0-----0---0---0---0---0-----0---5---5---5---7/9---9---0---0---0---0-----0---0---0---0----|
D|---0-----0---7---7---7---7/9---9---0---0---0---0-----0---0---0---0---0-----0---0---0---0----|
A|---7/9---9---0---0---0---0-----0---0---0---0---0-----0---0---0---0--------------------------|
E|---0-----0---0---0---0---0-----0------------------------------------------------------------|

103)
e|---0---0---0---0---0---0---0---0---0---0---0---0---0---0---0---0---0---0---0---0---0---0----|
B|---5---5---5---5---5---5---5---5---5---5---5---4---4---4---4---4---4---4---4---4---4---4----|
G|---0---0---0---0---0---0---0---0---0---0---0---0---0---0---0---0---0---0---0---0---0---0----|
D|---0---0---0---0---0---0---0---0---0---0---0---0---0---0---0---0---0---0---0---0---0---0----|
A|---0---0---0---0---0---0---0---0---0---0---0---0---0---0---0---0---0---0---0---0---0---0----|
E|---5---5---5---5---5---5---5---5---5---5---5---5---5---5---5---5---5---5---5---5---5---5----|

104)
e|---0---0---0---0---0---0---0---0---0---0---0---0---0---0---0---0---0---0---0---0---0---0-------|
B|---0---0---0---0---0---0---0---0---0---0---0---0---0---0---0---0---0---0---0---0---0---0-------|
G|---5---5---5---5---5---4---4---4---4---4---0---0---0---0---0---0---0---0---0---0---0---0-------|
D|---0---0---0---0---0---0---0---0---0---0---5---5---5---4---4---4---0---0---0---0---0---0---0---|
A|---0---0---0---0---0---0---0---0---0---0---0---0---0---0---0---0---5---5---5---4---4---4---0---|
E|---5---5---5---5---5---5---5---5---5---5---5---5---5---5---5---5---5---5---5---5---5---5---0---|

105)
e|---0---0---0---0---0---0---0---0---0---0---0-----0---0---0---0---0---0---0---0---0---0---0------|
B|---4---4---4---4---4---4---4---4---4---4---4/5---5---5---5---5---5---5---5---5---5---5---5/7----|
G|---0---0---0---0---0---0---0---0---0---0---0-----0---0---0---0---0---0---0---0---0---0---0------|
D|---0---0---0---0---0---0---0---0---0---0---0-----0---0---0---0---0---0---0---0---0---0---0------|
A|------------------------------------------------------------------------------------------------|
E|------------------------------------------------------------------------------------------------|

106)
e|---0---0---0---0-----0---0---0---0---0---0------0----0---0---0---0---0---0---0---0---0----|
B|---7---7---7---7---7/9---9---9---9---9---9/11---11--11---11--11--11--11--11--0---0---0----|
G|---0---0---0---0-----0---0---0---0---0---0------0---0----0---0---0---0---0---0---0---0----|
D|---0---0---0---0-----0---0---0---0---0---0------0---0----0---0---0---0---0---0---0---0----|
A|------------------------------------------------------------------------------------------|
E|------------------------------------------------------------------------------------------|

Back to fingerstyle, still fast tempo

107)
e|---------------------------0-------------------------------0--------|
B|-----------0-------------------------------0------------------------|
G|---------------9---------------9---------------9---------------9----|
D|--------------------------------------------------------------------|
A|--------------------------------------------------------------------|
E|---9---9-----------9---9-----------9---9-----------9---9------------|

108)
e|---------------------------0-------------------------------0--------|
B|-----------0-------------------------------0------------------------|
G|---------------7---------------7---------------7---------------7----|
D|--------------------------------------------------------------------|
A|--------------------------------------------------------------------|
E|---7---7-----------7---7-----------7---7-----------7---7------------|

109)
e|---------------------------0-------------------------------0--------|
B|-----------0-------------------------------0------------------------|
G|---------------5---------------5---------------5---------------5----|
D|--------------------------------------------------------------------|
A|--------------------------------------------------------------------|
E|---5---5-----------5---5-----------5---5-----------5---5------------|

110)
e|---------------------------0-------------------------------0--------|
B|-----------0-------------------------------0------------------------|
G|---------------2---------------2---------------2---------------2----|
D|--------------------------------------------------------------------|
A|--------------------------------------------------------------------|
E|---2---2-----------2---2-----------2---2-----------2---2------------|

111)
e|---------------------------0--------------------------------------------------------|
B|-----------0-------------------7---7---7---7---7---7---7---7---7---7---7---7---7----|
G|---------------9-------------------9---9---9---9---9---9---9---9---9---9---9---9----|
D|-----------------------------------------------0---0---0---0---0---0---0---0---0----|
A|-----------------------------------------------------------0---0---0---0---0---0----|
E|---9---9-----------9---9-----------------------------------------------9---9---9----|

112)
e|----------------------------------------------------------------------------------|
B|-------------------------5---5---5---5---5---5---5---5---5---5--------------------|
G|-------------7---7-------7---7---7---7---7---7---7---7---7---7---5---5---5---5----|
D|-------------0---0-----------0---0---0---0---0---0---0---0---0---0---0---0---0----|
A|-----------------0-----------------------0---0---0---0---0---0---0---0---0---0----|
E|---9\7---7-----------7-------------------------------------------7---7---7---7----|

113)
e|-----------0---------------0---------------0---------------0---------------------------------------|
B|---5----5-----5----------------5---------------4---------------4-----------0---------------0-------|
G|------------------------------------------------------------------------------5---------------5----|
D|---------------------------------------------------------------------------------------------------|
A|---------------------------------------------------------------------------------------------------|
E|---5---------------5---5-----------5---5-----------5---5-----------5---5-----------5---5-----------|

114)
e|-----------------------------------------------------------------------------------|
B|-----------0---------------0-------------------------------------------------------|
G|---------------4---------------4------0---0---0---0---0---0---0---0---0---0---0----|
D|--------------------------------------5---5---5---5---5---5---5---5---5---5---5----|
A|--------------------------------------0---0---0---0---0---0---0---0---0---0---0----|
E|---5---5-----------5---5----------------------5---5---5---5---5---5---5---5---5----|

115)
e|--------------------------------------------------------------------------------------------|
B|--------------------------------------------------------------------------------------------|
G|---0---0---0---0---0---0---0---0---0---0---0---0---0---0---0---0---0---0---0---0---0---0----|
D|---4---4---4---4---4---4---4---4---4---4---4---0---0---0---0---0---0---0---0---0---0---0----|
A|---0---0---0---0---0---0---0---0---0---0---0---5---5---5---5---5---5---5---5---5---5---5----|
E|---5---5---5---5---5---5---5---5---5---5---5---5---5---5---5---5---5---5---5---5---5---5----|

                                                       Tempo calms down a bit for this section

116)
e|-----------------------------------------------------------------------0-------------------------------0---|
B|--------------------------------------------------------0-----------------------------0--------------------|
G|--0---0---0---0---0---0---0---0---0---0---0-----0-----------0--------------0--------------0----------------|
D|--0---0---0---0---0---0---0---0---0---0---0-----0----------------------------------------------------------|
A|--4---4---4---4---4---4---4---4---4---4---4-----0----------------------------------------------------------|
E|--5---5---5---5---5---5---5---5---5---5---5-----0---0-----------0--0-----------0--0-----------0--0---------|

117)
e|--------------12----------------12----------------12----------------12----------------12-----------------|
B|---------------------------------------------------------------------------------------------------------|
G|---/12---12--------12----------------12----------------12----------------12----------------12------------|
D|---------------------------------------------------------------------------------------------------------|
A|---------------------------------------------------------------------------------------------------------|
E|------------------------0---0-------------0---0-------------0---0-------------0---0-------------0---0----|

118)
e|---12----------------12----------------12--------------12----------------12--------------7-----------------|
B|-----------------------------------------------------------------------------------------------------------|
G|--------12----------------12----------------/12---12--------12----------------12\7---7-------7-------------|
D|-----------------------------------------------------------------------------------------------------------|
A|-----------------------------------------------------------------------------------------------------------|
E|-------------0---0-------------0---0-----------------------------0---0----------------------------0---0----|

119)
e|---7-------------8---------------8---------------8---------------8---------------7---------------|
B|-------------------------------------------------------------------------------------------------|
G|-------7/9---9-------9---------------9---------------9---------------9---7---7-------7-----------|
D|-------------------------------------------------------------------------------------------------|
A|-------------------------------------------------------------------------------------------------|
E|-------------------------0---0-----------0---0-----------0---0--------------------------0---0----|

120)
e|---7-------------5---------------5-------------3---------------3----------------------------3-----------|
B|-------------------------------------------------------------------------------0------------------------|
G|-------7\5---5-------5---------------5\4---4-------4---------------4---------------4-------------4\2----|
D|--------------------------------------------------------------------------------------------------------|
A|--------------------------------------------------------------------------------------------------------|
E|-------------------------0---0-------------------------0---0-----------0---0-----------0---0------------|

121)
e|-----------------------1---------------0-----------------------------------------------0----------------|
B|-------0-----------------------------------------------0---------------0--------------------------------|
G|---2-------2---------------2---------------0---------------0---------------0---------------0------------|
D|--------------------------------------------------------------------------------------------------------|
A|--------------------------------------------------------------------------------------------------------|
E|---------------0---0-----------0---0-----------0---0-----------7---7-----------7---7-----------7---7----|

122)
e|-------------------0--------------------------------0--------------------------------0--------|
B|---0--------------------------------0-------------------------------0-------------------------|
G|-------0----------------0---------------0---------------0----------------0---------------0----|
D|----------------------------------------------------------------------------------------------|
A|----------------------------------------------------------------------------------------------|
E|-----------7---7------------9---9-----------9---9-----------9---9------------9---9------------|

123)
e|---------------------------0-------------------------------0-------------------------------0---------------|
B|-----------0-------------------------------0-------------------------------0-------------------------------|
G|---------------0---------------0---------------0---------------0---------------0---------------0-----------|
D|-----------------------------------------------------------------------------------------------------------|
A|-----------------------------------------------------------------------------------------------------------|
E|---5---5-----------5---5-----------5---5-----------5---5-----------0---0-----------0---0-----------0---0---|

124)
e|-------------------0-------------------------------0--------------------------------0--------|
B|---0-------------------------------0-------------------------------0-------------------------|
G|-------0---------------0---------------0---------------0---------------0----------------0----|
D|---------------------------------------------------------------------------------------------|
A|---------------------------------------------------------------------------------------------|
E|-----------0---0-----------7---7-----------7---7-----------7---7-----------7---7-------------|

125)
e|---------------------------0-------------------------------0--------------------------------0--------|
B|-----------0-------------------------------0-------------------------------0-------------------------|
G|---------------0---------------0---------------0---------------0---------------0----------------0----|
D|-----------------------------------------------------------------------------------------------------|
A|-----------------------------------------------------------------------------------------------------|
E|---9---9-----------9---9-----------9---9-----------9---9-----------5---5-----------5---5-------------|

126)
e|---------------------------0-------------------------------0----------------------------------0--------|
B|-----------0-------------------------------0---------------------------------0-------------------------|
G|---------------0---------------0---------------5---------------5/7---------------7----------------7----|
D|-------------------------------------------------------------------------------------------------------|
A|-------------------------------------------------------------------------------------------------------|
E|---5---5-----------5---5-----------0---0-----------0---0-------------0---0-----------0---0-------------|

127)
e|---------------------------0-------------------------------0------------------------------0----------------|
B|-----------0-------------------------------0-----------------------------0---------------------------------|
G|---------------7---------------7---------------7---------------7/9-----------9-----------------9-----------|
D|-----------------------------------------------------------------------------------------------------------|
A|-----------------------------------------------------------------------------------------------------------|
E|---7---7-----------7---7-----------7---7-----------7---7---------9---9-----------9---9-------------9---9---|

128)
e|-------------------0-------------------------------0--------------------------------0--------|
B|---0-------------------------------0-------------------------------0-------------------------|
G|-------9---------------9---------------5---------------5---------------5----------------5----|
D|---------------------------------------------------------------------------------------------|
A|---------------------------------------------------------------------------------------------|
E|-----------9---9-----------5---5-----------5---5-----------5---5-----------5---5-------------|

129)
e|---------------------------0-------------------------------0---------------------------------0---------|
B|-----------0------------------------------0--------------------------------0---------------------------|
G|---------------5---------------5/7------------7----------------7---------------7------------------7----|
D|-------------------------------------------------------------------------------------------------------|
A|-------------------------------------------------------------------------------------------------------|
E|---0---0-----------0---0---------0---0-------------0---0-----------7---7-----------7---7---------------|

130)
e|--------------------0------------------------------0--------------------------------0---------|
B|---0-------------------------------0-------------------------------0--------------------------|
G|-------7----------------7/9------------9---------------9---------------9-----------------9----|
D|----------------------------------------------------------------------------------------------|
A|----------------------------------------------------------------------------------------------|
E|-----------7---7----------9---9------------9---9-----------9---9-----------9---9--------------|

131)
e|-----------------------------0-------------------------------0---------|
B|------------0--------------------------------0-------------------------|
G|----------------5----------------5---------------5----------------5----|
D|-----------------------------------------------------------------------|
A|-----------------------------------------------------------------------|
E|---5---5------------5---5------------5---5-----------5---5-------------|

Strumming starts again, and tempo is increased a little

132)
e|--------------------------------------------------------------------------------------|
B|--------------------------------------------------------------------------------------|
G|-------0---0---0---0---0---0---0---0---0---0---0-----0---0---0---0---0---0---0---0----|
D|---0---0---0---0---0---0---0---0---0---0---0---0-----0---0---0---0---0---0---0---0----|
A|---5---5---5---5---5---5---5---5---5---5---5---5/7---7---7---7---7---7---7---7---9----|
E|---0---0---0---0---0---0---0---0---0---0---0---0-----0---0---0---0---0---0---0---0----|

133)
e|------------------------------------------------------------------------------------------------|
B|------------------------------------------------------------------------------------------------|
G|---0---0---0---0---0---0---0---0---0---0---0---0---0---0---0---0---0---0---0---0---0---0---0----|
D|---0---0---0---0---0---0---0---0---0---0---0---0---0---0---0---0---0---0---0---0---0---0---0----|
A|---9---9---9---9---9---9---9---9---9---9---9---9---9---9---9---9---9---9---9---9---9---9---9----|
E|---7---7---7---7---7---7---7---7---7---7---7---7---7---7---7---7---7---7---7---7---7---7---7----|

134)
e|-------------------------------------------------------------------------------------------|
B|-------------------------------------------------------------------------------------------|
G|---0---0---0---0---0---0---0---0---0---0---0---0---0---0---0---0---0---0---0---0---0---0---|
D|---0---0---0---0---0---0---0---0---0---0---0---0---0---0---0---0---0---0---0---0---0---0---|
A|---9---9---9---9---9---9---9---9---9---9---9---7---7---7---7---7---7---7---7---7---7---7---|
E|---9---9---9---9---9---9---9---9---9---9---9---9---9---9---9---9---9---9---9---9---9---9---|

135)
e|-----------------------------------------------------------------------------------------------|
B|-----------------------------------------------------------------------------------------------|
G|---0---0---0---0---0---0---0---0---0---0---0---0---0---0---0---0---0---0---0---0---0---0---0---|
D|---0---0---0---0---0---0---0---0---0---0---0---0---0---0---0---0---0---0---0---0---0---0---0---|
A|---4---4---4---4---4---4---4---4---4---4---4---4---4---4---4---4---4---4---4---4---4---4---4---|
E|---5---5---5---5---5---5---5---5---5---5---5---5---5---5---5---5---5---5---5---5---5---5---5---|

136)
e|--------------------------------------------------------------------------------------|
B|--------------------------------------------------------------------------------------|
G|-------0---0---0---0---0---0---0---0---0---0---0-----0---0---0---0---0---0---0---0----|
D|---0---0---0---0---0---0---0---0---0---0---0---0-----0---0---0---0---0---0---0---0----|
A|---5---5---5---5---5---5---5---5---5---5---5---5/7---7---7---7---7---7---7---7---9----|
E|---0---0---0---0---0---0---0---0---0---0---0---0-----0---0---0---0---0---0---0---0----|

137)
e|------------------------------------------------------------------------------------------------|
B|------------------------------------------------------------------------------------------------|
G|---0---0---0---0---0---0---0---0---0---0---0---0---0---0---0---0---0---0---0---0---0---0---0----|
D|---0---0---0---0---0---0---0---0---0---0---0---0---0---0---0---0---0---0---0---0---0---0---0----|
A|---9---9---9---9---9---9---9---9---9---9---9---9---9---9---9---9---9---9---9---9---9---9---9----|
E|---7---7---7---7---7---7---7---7---7---7---7---7---7---7---7---7---7---7---7---7---7---7---7----|

138)
e|--------------------------------------------------------------------------------------------|
B|--------------------------------------------------------------------------------------------|
G|---0---0---0---0---0---0---0---0---0---0---0---0---0---0---0---0---0---0---0---0---0---0----|
D|---0---0---0---0---0---0---0---0---0---0---0---0---0---0---0---0---0---0---0---0---0---0----|
A|---9---9---9---9---9---9---9---9---9---9---9---7---7---7---7---7---7---7---7---7---7---7----|
E|---9---9---9---9---9---9---9---9---9---9---9---9---9---9---9---9---9---9---9---9---9---9----|

139)
e|------------------------------------------------------------------------------------------------|
B|------------------------------------------------------------------------------------------------|
G|---0---0---0---0---0---0---0---0---0---0---0---0---0---0---0---0---0---0---0---0---0---0---0----|
D|---0---0---0---0---0---0---0---0---0---0---0---0---0---0---0---0---0---0---0---0---0---0---0----|
A|---4---4---4---4---4---4---4---4---4---4---4---4---4---4---4---4---4---4---4---4---4---4---4----|
E|---5---5---5---5---5---5---5---5---5---5---5---5---5---5---5---5---5---5---5---5---5---5---5----|

140)
e|------------------------------------------------------------------------------------|
B|---0---0---0---0---0---0-----0---0---0---0---0-----0---0---0---0---0---0---0---0----|
G|---0---0---0---0---0---0-----0---0---0---0---0-----0---0---0---0---0---0---0---0----|
D|---2---2---2---2---2---2/4---4---4---4---4---4/5---5---5---5---5---7---7---9---9----|
A|---0---0---0---0---0---0-----0---0---0---0---0-----0---0---0---0---0---0---0---0----|
E|---0---0---0---0---0---0-----0---0---0---0---0-----0---0---0---0---0---0---0---0----|

141)
e|---0---0---0---0---0---0---0---0---0---0---0---0---0---0---0---0---0---0---0---0---0---0---0----|
B|---0---0---0---0---0---0---0---0---0---0---0---0---0---0---0---0---0---0---0---0---0---0---0----|
G|---0---0---0---0---0---0---0---0---0---0---0---0---0---0---0---0---0---0---0---0---0---0---0----|
D|---9---9---9---9---9---9---9---9---9---9---9---9---9---9---9---9---9---9---9---9---9---9---9----|
A|---0---0---0---0---0---0---0---0---0---0---0---0---0---0---0---0---0---0---0---0---0---0---0----|
E|---7---7---7---7---7---7---7---7---7---7---7---7---7---7---7---7---7---7---7---7---7---7---7----|

142)
e|--0----0----0----0----0----0----0----0----0----0----0----0----0----0----0----0----0----0----0----0----0---|
B|--0----0----0----0----0----0----0----0----0----0----0----0----0----0----0----0----0----0----0----0----0---|
G|--0----0----0----0----0----0----0----0----0----0----0----0----0----0----0----0----0----0----0----0----0---|
D|--11---11---11---11---11---11---11---11---11---11---11---11---11---11---11---11---11---11---11---11---11--|
A|--0----0----0----0----0----0----0----0----0----0----0----0----0----0----0----0----0----0----0----0----0---|
E|--9----9----9----9----9----9----9----9----9----9----9----9----9----9----9----9----9----9----9----9----9---|

143)
e|---0---0---0---0---0---0---0---0---0---0---0---0---0---0---0---0---0---0---0---0---0---0---0---0---0---0--|
B|---0---0---0---0---0---0---0---0---0---0---0---0---0---0---0---0---0---0---0---0---0---0---0---0---0---0--|
G|---0---0---0---0---0---0---0---0---0---0---0---0---0---0---0---0---0---0---0---0---0---0---0---0---0---0--|
D|---0---0---0---7---7---7---7---7---7---7---7---7---7---7---7---7---7---7---7---7---7---7---7---0---0---0--|
A|---0---0---0---0---0---0---0---0---0---0---0---0---0---0---0---0---0---0---0---0---0---0---0---0---0---0--|
E|---0---0---0---5---5---5---5---5---5---5---5---5---5---5---5---5---5---5---5---5---5---5---5---0---0---0--|

144)
e|---0---0---0---0---0---0-----0---0---0---0---0-----0---0---0---0---0---0---0---0----|
B|---2---2---2---2---2---2/4---4---4---4---4---4/5---5---5---5---5---7---7---9---9----|
G|---0---0---0---0---0---0-----0---0---0---0---0-----0---0---0---0---0---0---0---0----|
D|---2---2---2---2---2---2/4---4---4---4---4---4/5---5---5---5---5---7---7---9---9----|
A|---0---0---0---0---0---0-----0---0---0---0---0-----0---0---0---0---0---0---0---0----|
E|---0---0---0---0---0---0-----0---0---0---0---0-----0---0---0---0---0---0---0---0----|

145)
e|---0---0---0---0---0---0---0---0---0---0---0---0---0---0---0---0---0---0---0---0---0---0---0----|
B|---9---9---9---9---9---9---9---9---9---9---9---9---9---9---9---9---9---9---9---9---9---9---9----|
G|---0---0---0---0---0---0---0---0---0---0---0---0---0---0---0---0---0---0---0---0---0---0---0----|
D|---9---9---9---9---9---9---9---9---9---9---9---9---9---9---9---9---9---9---9---9---9---9---9----|
A|---0---0---0---0---0---0---0---0---0---0---0---0---0---0---0---0---0---0---0---0---0---0---0----|
E|---7---7---7---7---7---7---7---7---7---7---7---7---7---7---7---7---7---7---7---7---7---7---7----|

146)
e|---0----0----0----0----0----0----0----0----0----0----0----0----0----0----0----0----0----0----0----0----|
B|---11---11---11---11---11---11---11---11---11---11---11---11---11---11---11---11---11---11---11---11---|
G|---0----0----0----0----0----0----0----0----0----0----0----0----0----0----0----0----0----0----0----0----|
D|---11---11---11---11---11---11---11---11---11---11---11---11---11---11---11---11---11---11---11---11---|
A|---0----0----0----0----0----0----0----0----0----0----0----0----0----0----0----0----0----0----0----0----|
E|---9----9----9----9----9----9----9----9----9----9----9----9----9----9----9----9----9----9----9----9----|

147)
e|---0---0---0---0---0---0---0---0---0---0---0---0---0---0---0---0---0---0---0---0---0---0---0---0---0----|
B|---0---0---0---5---5---5---5---5---5---5---5---5---5---5---4---4---4---4---4---4---4---4---4---4---4----|
G|---0---0---0---0---0---0---0---0---0---0---0---0---0---0---0---0---0---0---0---0---0---0---0---0---0----|
D|---0---0---0---0---0---0---0---0---0---0---0---0---0---0---0---0---0---0---0---0---0---0---0---0---0----|
A|---0---0---0---0---0---0---0---0---0---0---0---0---0---0---0---0---0---0---0---0---0---0---0---0---0----|
E|---0---0---0---5---5---5---5---5---5---5---5---5---5---5---5---5---5---5---5---5---5---5---5---5---5----|

148)
e|---0---0---0---0---0---0---0---0---0---0---0---0---0---0---0---0---0---0---0---0---0---0----|
B|---0---0---0---0---0---0---0---0---0---0---0---0---0---0---0---0---0---0---0---0---0---0----|
G|---5---5---5---5---5---5---5---5---5---5---5---4---4---4---4---4---4---4---4---4---4---4----|
D|---0---0---0---0---0---0---0---0---0---0---0---0---0---0---0---0---0---0---0---0---0---0----|
A|---0---0---0---0---0---0---0---0---0---0---0---0---0---0---0---0---0---0---0---0---0---0----|
E|---5---5---5---5---5---5---5---5---5---5---5---5---5---5---5---5---5---5---5---5---5---5----|

149)
e|---0---0---0---0---0---0---0---0---0---0---0---0---0---0---0---0---0---0---0---0---0---0----|
B|---0---0---0---0---0---0---0---0---0---0---0---0---0---0---0---0---0---0---0---0---0---0----|
G|---0---0---0---0---0---0---0---0---0---0---0---0---0---0---0---0---0---0---0---0---0---0----|
D|---5---5---5---5---5---5---5---5---5---5---5---4---4---4---4---4---4---4---4---4---4---4----|
A|---0---0---0---0---0---0---0---0---0---0---0---0---0---0---0---0---0---0---0---0---0---0----|
E|---5---5---5---5---5---5---5---5---5---5---5---5---5---5---5---5---5---5---5---5---5---5----|

150)
e|---0---0---0---0---0---0---0---0---0---0---0---0---0---0---0---0---0---0---0---0---0---0----|
B|---0---0---0---0---0---0---0---0---0---0---0---7---7---7---7---7---7---7---7---7---7---7----|
G|---0---0---0---0---0---0---0---0---0---0---0---0---0---0---0---0---0---0---0---0---0---0----|
D|---0---0---0---0---0---0---0---0---0---0---0---0---0---0---0---0---0---0---0---0---0---0----|
A|---5---5---5---5---5---5---5---5---5---5---5---4---4---4---4---4---4---4---4---4---4---4----|
E|---5---5---5---5---5---5---5---5---5---5---5---5---5---5---5---5---5---5---5---5---5---5----|


This is the climax of the song. Strum as hard and fast as you can 

151)
e|-------12---12---12---12---10---10---10---10---10---10---10-----------------------------------------------|
B|-------0----0----0----0----0----0----0----0----0----0----0----12---12---12---11---11---11---12---12---12--|
G|-------0----0----0----0----0----0----0----0----0----0----0----0----0----0----0----0----0----0----0----0---|
D|---0---0----0----0----0----0----0----0----0----0----0----0----0----0----0----0----0----0----0----0----0---|
A|---0------------------------------------------------------------------------------------------------------|
E|---0------------------------------------------------------------------------------------------------------|

152)
e|---------------------12---12---12---12---10---10---10---10---10---10---------------------------------------|
B|---11---11---11------0----0----0----0----0----0----0----0----0----0---12---12---12---11---11---11---11/12--|
G|---0----0----0-------0----0----0----0----0----0----0----0----0----0---0----0----0----0----0----0-----0-----|
D|---0----0----0---0---0----0----0----0----0----0----0----0----0----0---0----0----0----0----0----0-----0-----|
A|-----------------0-----------------------------------------------------------------------------------------|
E|-----------------0-----------------------------------------------------------------------------------------|

153)
e|------------------------------12---12---12---12---10---10---10---10---10---10-------------------|
B|---12---12---12---12----------0----0----0----0----0----0----0----0----0----0----12---12---12----|
G|---0----0----0----0-----------0----0----0----0----0----0----0----0----0----0----0----0----0-----|
D|---0----0----0----0-------0---0----0----0----0----0----0----0----0----0----0----0----0----0-----|
A|--------------------------0---------------------------------------------------------------------|
E|--------------------------0---------------------------------------------------------------------|

154)
e|------------------------------------------------0----0----0----0----0----0----0-------0----0----0----0----|
B|---11---11---11---11/12---12---12---12----12----12---12---12---12---12---12---12/11---11---11---11---11---|
G|---0----0----0----0-------0----0----0-----0-----0----0----0----0----0----0----0-------0----0----0----0----|
D|---0----0----0----0-------0----0----0-----0-----12---12---12---12---12---12---12/11---11---11---11---11---|
A|------------------------------------------------0----0----0----0----0----0----0-------0----0----0----0----|
E|----------------------------------------------------------------------------------------------------------|

155)
e|---0------0---0---0---0---0---0---0---0---0---0-----------12---12---12---12---10---10---10---10---10---10-|
B|---11/9---9---9---9---9---2---2---2---2---2---2-----------0----0----12---12---10---10---10---10---10---10-|
G|---0------0---0---0---0---0---0---0---0---0---0-----------0----0----0----0----0----0----0----0----0----0--|
D|---11/9---9---9---9---9---2---2---2---2---2---2-------0---0----0----0----0----0----0----0----0----0----0--|
A|---0------0---0---0---0---0---0---0---0---0---0-------0---------------------------------------------------|
E|------------------------------------------------------0---------------------------------------------------|

156)
e|---------------------------------------------------------------|
B|---12---12---12---11---11---11---12---12---12---11---11---11---|
G|---0----0----0----0----0----0----0----0----0----0----0----0----|
D|---0----0----0----0----0----0----0----0----0----0----0----0----|
A|---------------------------------------------------------------|
E|---------------------------------------------------------------|

157)
e|----12---12---12---12---10---10---10---10---10---10--------------------------------------------------------|
B|----0----0----0----0----0----0----0----0----0----0--12---12---12---11---11---11---11/12---12---12---12--12-|
G|----0----0----0----0----0----0----0----0----0----0--0----0----0----0----0----0----0-------0----0----0---0--|
D|-0--0----0----0----0----0----0----0----0----0----0--0----0----0----0----0----0----0-------0----0----0---0--|
A|-0---------------------------------------------------------------------------------------------------------|
E|-0---------------------------------------------------------------------------------------------------------|

158)
e|----12---12---12---12---10---10---10---10---10---10-------------------------------------------------------|
B|----0----0----0----0----0----0----0----0----0----0--12--12---12---11---11---11---11/12---12---12---12---12|
G|----0----0----0----0----0----0----0----0----0----0--0---0----0----0----0----0----0-------0----0----0----0-|
D|-0--0----0----0----0----0----0----0----0----0----0--0---0----0----0----0----0----0-------0----0----0----0-|
A|-0--------------------------------------------------------------------------------------------------------|
E|-0--------------------------------------------------------------------------------------------------------|

159)
e|---0----0----0----0----0----0----0-------0----0----0----0----0------0---0---0---0---0-----0---0---0---0---|
B|---12---12---12---12---12---12---12/11---11---11---11---11---11/9---9---9---9---9---9/7---7---7---7---7---|
G|---0----0----0----0----0----0----0-------0----0----0----0----0------0---0---0---0---0-----0---0---0---0---|
D|---12---12---12---12---12---12---12/11---11---11---11---11---11/9---9---9---9---9---9/7---7---7---7---7---|
A|---0----0----0----0----0----0----0-------0----0----0----0----0------0---0---0---0---0-----0---0---0---0---|
E|----------------------------------------------------------------------------------------------------------|

160)
e|---0---0---0---0---0---0---0---0---0---0---0---0---0---0---0---0---0---0---0---0---0---0---0---0----|
B|---5---5---5---4---4---4---2---2---2---0---0---0---2---2---2---4---4---4---5---5---5---9---9---0----|
G|---0---0---0---0---0---0---0---0---0---0---0---0---0---0---0---0---0---0---0---0---0---0---0---0----|
D|---5---5---5---4---4---4---2---2---2---0---0---0---2---2---2---4---4---4---5---5---5---9---9---0----|
A|---0---0---0---0---0---0---0---0---0---0---0---0---0---0---0---0---0---0---0---0---0---0---0---0----|
E|---0---0---0---0---0---0---0---0---0---0---0---0---0---0---0---0---0---0---0---0---0---0---0---0----|


161)
e|-------(3)p0-------------------------------(3)p0-------------------------------(3)p0----------------------|
B|---------------4p2p0-------0h2p0-------0----------4p2p0-------0h2p0-------0------------4p2p0------0h2p0---|
G|-----------------------4-----------4----------------------4-----------4------------------------4----------|
D|--0-------------------------------------------------------------------------------------------------------|
A|--0-------------------------------------------------------------------------------------------------------|
E|--0-------------------------------------------------------------------------------------------------------|

162)
e|-----------(3)p0---------------------------------|
B|-------0-----------4p2p0-------0h2p0--------0----|
G|---4-----------------------4-----------4---------|
D|-------------------------------------------------|
A|-------------------------------------------------|
E|-------------------------------------------------|

163)
e|-------(3)p0-------------------------------(3)p0-------------------------------(3)p0----------------------|
B|---------------4p2p0-------0h2p0-------0----------4p2p0-------0h2p0-------0------------4p2p0------0h2p0---|
G|-----------------------4-----------4----------------------4-----------4------------------------4----------|
D|--0-------------------------------------------------------------------------------------------------------|
A|--0-------------------------------------------------------------------------------------------------------|
E|--0-------------------------------------------------------------------------------------------------------|

164)
e|-----------(3)p0---------------------------------|
B|-------0-----------4p2p0-------0h2p0--------0----|
G|---4-----------------------4-----------4---------|
D|-------------------------------------------------|
A|-------------------------------------------------|
E|-------------------------------------------------|

165)
e|-------(3)p0-------------------------------(3)p0-------------------------------(3)p0----------------------|
B|---------------4p2p0-------0h2p0-------0----------4p2p0-------0h2p0-------0------------4p2p0------0h2p0---|
G|-----------------------4-----------4----------------------4-----------4------------------------4----------|
D|--0-------------------------------------------------------------------------------------------------------|
A|--0-------------------------------------------------------------------------------------------------------|
E|--0-------------------------------------------------------------------------------------------------------|

166)
e|-----------(3)p0---------------------------------|
B|-------0-----------4p2p0-------0h2p0--------0----|
G|---4-----------------------4-----------4---------|
D|-------------------------------------------------|
A|-------------------------------------------------|
E|-------------------------------------------------|

167)
e|-------(3)p0-------------------------------(3)p0-------------------------------(3)p0-----------------------|
B|---------------4p2p0-------0h2p0-------0----------4p2p0-------0h2p0-------0------------4p2p0------0h2p0----|
G|-----------------------4-----------4----------------------4-----------4------------------------4-----------|
D|--0--------------------------------------------------------------------------------------------------------|
A|--0--------------------------------------------------------------------------------------------------------|
E|--0--------------------------------------------------------------------------------------------------------|

168)
e|-----------(3)p0---------------------------------|
B|-------0-----------4p2p0-------0h2p0--------0----|
G|---4-----------------------4-----------4---------|
D|-------------------------------------------------|
A|-------------------------------------------------|
E|-------------------------------------------------|

Tap bottom notes with strumming hand

169)
e|-------(3)p0-------------------------------------(3)p0--------------------------------|
B|---------------4p2p0-------0h2p0--------0----------------4p2p0-------0h2p0-------0----|
G|-----------------------4-----------4-----------------------------4-----------4--------|
D|--------------------------------------------------------------------------------------|
A|--------------------------------------------------------------------------------------|
E|---7-----------------------------------------9----------------------------------------|

170)
e|-------(3)p0-----------------------------------------------(3)p0--------------------------------|
B|---------------4p2p0-------0h2p0-------0h2p0-------0---------------4p2p0-------0h2p0-------0----|
G|-----------------------4-----------4-----------4---------------------------4-----------4--------|
D|------------------------------------------------------------------------------------------------|
A|------------------------------------------------------------------------------------------------|
E|---5---------------------------------------------------5----------------------------------------|

171)
e|-------(3)p0-----------------------------------------------(3)p0--------------------------------|
B|---------------4p2p0-------0h2p0-------0h2p0-------0---------------4p2p0-------0h2p0-------0----|
G|-----------------------4-----------4-----------4---------------------------4-----------4--------|
D|------------------------------------------------------------------------------------------------|
A|------------------------------------------------------------------------------------------------|
E|---7---------------------------------------------------9----------------------------------------|

172)
e|-------(3)p0-----------------------------------------------(3)p0--------------------------------|
B|---------------4p2p0-------0h2p0-------0h2p0-------0---------------4p2p0-------0h2p0-------0----|
G|-----------------------4-----------4-----------4---------------------------4-----------4--------|
D|------------------------------------------------------------------------------------------------|
A|------------------------------------------------------------------------------------------------|
E|---5---------------------------------------------------5----------------------------------------|

173)
e|-------(3)p0-----------------------------------------------(3)p0--------------------------------|
B|---------------4p2p0-------0h2p0-------0h2p0-------0---------------4p2p0-------0h2p0-------0----|
G|-----------------------4-----------4-----------4---------------------------4-----------4--------|
D|------------------------------------------------------------------------------------------------|
A|------------------------------------------------------------------------------------------------|
E|---7---------------------------------------------------9----------------------------------------|

174)
e|-------(3)p0-----------------------------------------------(3)p0--------------------------------|
B|---------------4p2p0-------0h2p0-------0h2p0-------0---------------4p2p0-------0h2p0-------0----|
G|-----------------------4-----------4-----------4---------------------------4-----------4--------|
D|------------------------------------------------------------------------------------------------|
A|------------------------------------------------------------------------------------------------|
E|---5---------------------------------------------------5----------------------------------------|

175)
e|-------(3)p0-----------------------------------------------(3)p0--------------------------------|
B|---------------4p2p0-------0h2p0-------0h2p0-------0---------------4p2p0-------0h2p0-------0----|
G|-----------------------4-----------4-----------4---------------------------4-----------4--------|
D|------------------------------------------------------------------------------------------------|
A|------------------------------------------------------------------------------------------------|
E|---7---------------------------------------------------9----------------------------------------|

176)
e|-------(3)p0-----------------------------------------------(3)p0--------------------------------|
B|---------------4p2p0-------0h2p0-------0h2p0-------0---------------4p2p0-------0h2p0-------0----|
G|-----------------------4-----------4-----------4---------------------------4-----------4--------|
D|------------------------------------------------------------------------------------------------|
A|------------------------------------------------------------------------------------------------|
E|---5---------------------------------------------------5----------------------------------------|

177)
e|-------(3)p0-----------------------------------------------(3)p0--------------------------------12*----|
B|---------------4p2p0-------0h2p0-------0h2p0-------0---------------4p2p0-------0h2p0-------0----12*----|
G|-----------------------4-----------4-----------4---------------------------4-----------4--------12*----|
D|------------------------------------------------------------------------------------------------12*----|
A|------------------------------------------------------------------------------------------------12*----|
E|---5-----------------------7-------------------------------9------------------11----------------12*----|


Tempo calms down, play quietly

178)
e|------------------------------------------------------------------------------------------------------|
B|-----------0---------------0---------------0----------------0---------0---------0---------0------0----|
G|---------------0---------------0---------------0----------------4/5-------4/5-------4/5-------5-------|
D|------------------------------------------------------------------------------------------------------|
A|------------------------------------------------------------------------------------------------------|
E|---0---0-----------0---0-----------0---0-----------0---0--------0---------0---------0-----------------|

179)
e|--------------------------------------------------------------------|
B|-----------0---------------0---------------0---------------0--------|
G|---------------0---------------0---------------0---------------0----|
D|--------------------------------------------------------------------|
A|--------------------------------------------------------------------|
E|---0---0-----------0---0-----------0---0-----------0---0------------|

180)
e|----------------------------------------------------------------------------|
B|-----------0-------------0---------0-------0---------0----------------------|
G|---------------0---4/5-------0h4-------4-------4\2-------0h2p0---------0----|
D|-----------------------------------------------------------------0h2--------|
A|----------------------------------------------------------------------------|
E|---0---0-----------0--------------------------------------------------------|

181)
e|--------------------------------------------------------------------|
B|-----------0---------------0---------------0---------------0--------|
G|---------------0---------------0---------------0---------------0----|
D|--------------------------------------------------------------------|
A|--------------------------------------------------------------------|
E|---0---0-----------0---0-----------0---0-----------0---0------------|

182)
e|------------------------------------------------------------------------------------|
B|---------0---------0---------0---------0---------0---------0---------0---------0----|
G|---0h4-------4/5-------0h4-------4/5-------0h4-------4/5-------4/5-------4/5--------|
D|------------------------------------------------------------------------------------|
A|------------------------------------------------------------------------------------|
E|---0---------0---------0---------0---------0---------0---------0---------0----------|

183)
e|--------------------------------------------------------------------|
B|-----------0---------------0---------------0---------------0--------|
G|---------------5---------------5---------------5---------------5----|
D|--------------------------------------------------------------------|
A|--------------------------------------------------------------------|
E|---0---0-----------0---0-----------0---0-----------0---0------------|

184)
e|---------------------------0-------------------------------0--------|
B|-----------2-------------------------------2------------------------|
G|---------------4---------------4---------------4---------------4----|
D|--------------------------------------------------------------------|
A|--------------------------------------------------------------------|
E|---0---0-----------0---0-----------0---0-----------0---0------------|

185)
e|---------------------------0-------------------------------0--------|
B|-----------2-------------------------------2------------------------|
G|---------------4---------------4---------------4---------------4----|
D|--------------------------------------------------------------------|
A|--------------------------------------------------------------------|
E|---4---4-----------4---4-----------4---4-----------4---4------------|

186)
e|---------------------------0----------------------------------------|
B|-----------2-------------------------------2---------------2--------|
G|---------------4---------------4---------------0---------------0----|
D|--------------------------------------------------------------------|
A|--------------------------------------------------------------------|
E|---4---4-----------4---4-----------4---4-----------4---4------------|

187)
e|--------------------------0-------------------------------0--------|
B|-----------2------------------------------2------------------------|
G|--------------0---------------0---------------0---------------0----|
D|-------------------------------------------------------------------|
A|-------------------------------------------------------------------|
E|---0---0----------0---0-----------0---0-----------0---0------------|

188)
e|---------------------------0-------------------------------0--------|
B|-----------2-------------------------------2------------------------|
G|---------------4---------------4---------------4---------------4----|
D|--------------------------------------------------------------------|
A|--------------------------------------------------------------------|
E|---0---0-----------0---0-----------0---0-----------0---0------------|

189)
e|---------------------------0-------------------------------0--------|
B|-----------2-------------------------------2------------------------|
G|---------------4---------------4---------------4---------------4----|
D|--------------------------------------------------------------------|
A|--------------------------------------------------------------------|
E|---4---4-----------4---4-----------4---4-----------4---4------------|

190)
e|-------------------------0----------------------------------------|
B|----------2------------------------------2---------------2--------|
G|-------------4---------------4---------------0---------------0----|
D|------------------------------------------------------------------|
A|------------------------------------------------------------------|
E|---4--4----------4---4-----------4---4-----------4---4------------|

191)
e|---------------------------0------------------------------0--------|
B|-----------2------------------------------2------------------------|
G|---------------0--------------0---------------0---------------0----|
D|-------------------------------------------------------------------|
A|-------------------------------------------------------------------|
E|---0---0-----------0---0----------0---0-----------0---0------------|

192)
e|-------------------------0--------------------------0--------|
B|---------2-------------------------2-------------------------|
G|---4/5-------5---------------5\4-------4----------------4----|
D|-------------------------------------------------------------|
A|-------------------------------------------------------------|
E|-----------------0---0---------------------0---0-------------|

193)
e|---------------------------0-------------------------------0--------|
B|-----------2-------------------------------2------------------------|
G|---------------4---------------4---------------4---------------4----|
D|--------------------------------------------------------------------|
A|--------------------------------------------------------------------|
E|---4---4-----------4---4-----------4---4-----------4---4------------|

194)
e|---------------------------0----------------------------------------|
B|-----------2-------------------------------2---------------2--------|
G|---------------4---------------4---------------0---------------0----|
D|--------------------------------------------------------------------|
A|--------------------------------------------------------------------|
E|---4---4-----------4---4-----------4---4-----------4---4------------|

195)
e|---------------------------0-------------------------------0--------|
B|-----------2-------------------------------2------------------------|
G|---------------0---------------0---------------0---------------0----|
D|--------------------------------------------------------------------|
A|--------------------------------------------------------------------|
E|---0---0-----------0---0-----------0---0-----------0---0------------|

196)
e|---------------------------0-------------------------------0--------|
B|-----------2-------------------------------2------------------------|
G|---------------0---------------0---------------0---------------0----|
D|--------------------------------------------------------------------|
A|--------------------------------------------------------------------|
E|---0---0-----------0---0-----------0---0-----------0---0------------|

197)
e|---------------------------0-------------------------------0--------|
B|-----------2-------------------------------2------------------------|
G|---------------4---------------4---------------4---------------4----|
D|--------------------------------------------------------------------|
A|--------------------------------------------------------------------|
E|---4---4-----------4---4-----------4---4-----------4---4------------|

198)
e|---------------------------0----------------------------------------|
B|-----------2-------------------------------2---------------2--------|
G|---------------4---------------4---------------4---------------4----|
D|--------------------------------------------------------------------|
A|--------------------------------------------------------------------|
E|---4---4-----------4---4-----------4---4-----------4---4------------|

199)
e|---------------------------0-------------------------------0--------|
B|-----------2-------------------------------2------------------------|
G|---------------0---------------0---------------0---------------0----|
D|--------------------------------------------------------------------|
A|--------------------------------------------------------------------|
E|---0---0-----------0---0-----------0---0-----------0---0------------|

200)
e|---------------------------0-------------------------------0--------|
B|-----------2-------------------------------2------------------------|
G|---------------0---------------0---------------0---------------0----|
D|--------------------------------------------------------------------|
A|--------------------------------------------------------------------|
E|---0---0-----------0---0-----------0---0-----------0---0------------|

201)
e|---------------------------0-------------------------------0--------|
B|-----------2-------------------------------2------------------------|
G|---------------0---------------0---------------0---------------0----|
D|--------------------------------------------------------------------|
A|--------------------------------------------------------------------|
E|---0---0-----------0---0-----------0---0-----------0---0------------|

202)
e|---------------------------0-------------------------------0--------|
B|-----------2-------------------------------2------------------------|
G|---------------0---------------0---------------0---------------0----|
D|--------------------------------------------------------------------|
A|--------------------------------------------------------------------|
E|---0---0-----------0---0-----------0---0-----------0---0------------|

Start playing loudly, tempo quickens


203)
e|---------------------------0-------------------------------0--------|
B|-----------2-------------------------------2------------------------|
G|---------------4---------------4---------------4---------------4----|
D|--------------------------------------------------------------------|
A|--------------------------------------------------------------------|
E|---0---0-----------0---0-----------0---0-----------0---0------------|

204)
e|---------------------------0----------------------------------------|
B|-----------2-------------------------------2---------------2--------|
G|---------------4---------------4---------------0---------------0----|
D|--------------------------------------------------------------------|
A|--------------------------------------------------------------------|
E|---4---4-----------4---4-----------4---4-----------4---4------------|

205)
e|---------------------------0-------------------------------0--------|
B|-----------2-------------------------------2------------------------|
G|---------------4---------------4---------------4---------------4----|
D|--------------------------------------------------------------------|
A|--------------------------------------------------------------------|
E|---0---0-----------0---0-----------0---0-----------0---0------------|

206)
e|----------------------------0----------------------------------------|
B|-----------2--------------------------------2---------------2--------|
G|---------------4----------------4---------------0---------------0----|
D|---------------------------------------------------------------------|
A|---------------------------------------------------------------------|
E|---4---4-----------4---4------------4---4-----------4---4------------|

207)
e|---------------------------0-------------------------------0--------|
B|-----------2-------------------------------2------------------------|
G|---------------4---------------4---------------4---------------4----|
D|--------------------------------------------------------------------|
A|--------------------------------------------------------------------|
E|---0---0-----------0---0-----------0---0-----------0---0------------|

208)
e|---------------------------0----------------------------------------|
B|-----------2-------------------------------2---------------2--------|
G|---------------4---------------4---------------0---------------0----|
D|--------------------------------------------------------------------|
A|--------------------------------------------------------------------|
E|---4---4-----------4---4-----------4---4-----------4---4------------|

209)
e|---------------------------0-------------------------------0--------|
B|-----------2-------------------------------2------------------------|
G|---------------4---------------4---------------4---------------4----|
D|--------------------------------------------------------------------|
A|--------------------------------------------------------------------|
E|---0---0-----------0---0-----------0---0-----------0---0------------|

210)
e|---------------------------0-------0---0---0---0---0---0---0---0---0---0---0----|
B|-----------2-----------------------2---2---2---2---2---2---2---2---2---2---2----|
G|---------------4---------------4---4---4---4---4---4---4---4---4---4---4---4----|
D|---------------------------------------0---0---0---0---0---0---0---0---0---0----|
A|-----------------------------------------------0---0---0---0---0---0---0---0----|
E|---4---4-----------4---4---------------------------4---4---4---4---4---4---4----|

Tempo increases again

211)
e|-------0---0---0---0---0---0---0---0---0---0---0-----0---0---0---0---0-----0---0---0---0----|
B|-------4---4---4---4---4---4---4---4---4---4---4/9---9---9---9---9---9\7---7---0---0---0----|
G|-------2---2---2---2---2---2---2---2---2---2---2/7---7---7---7---7---7\5---5---0---0---0----|
D|---0---0---0---0---0---0---0---0---0---0---0---0-----0---0---0---0---0-----0---0---0---0----|
A|---0----------------------------------------------------------------------------------------|
E|---0----------------------------------------------------------------------------------------|

212)
e|--------------------------------------------------------------------------------------------|
B|---2---2---2---2---2---2---2---2---2---2---2---2-----2---2---2---2---2-----2---2---2---2----|
G|---0---0---0---0---0---0---0---0---0---0---0---0-----0---0---0---0---0-----0---0---0---0----|
D|---0---0---0---0---0---0---0---0---0---0---0---0-----0---0---0---0---0-----0---0---0---0----|
A|---4---4---4---4---4---4---4---4---4---4---4---4/5---5---5---5---5---5\4---4---4---4---4----|
E|---4---4---4---4---4---4---4---4---4---4---4---4-----4---4---4---4---0-----4---4---4---4----|

213)
e|-------0---0---0---0---0---0---0---0-----0---0---0---0---0---0---0---0---0---0----|
B|-------4---4---4---4---4---4---4---4/7---7---7---7---7---7---7---7---0---0---0----|
G|-------2---2---2---2---2---2---2---2/5---5---5---5---5---5---5---5---0---0---0----|
D|---0---0---0---0---0---0---0---0---0-----0---0---0---0---0---0---0---0---0---0----|
A|---0------------------------------------------------------------------------------|
E|---0------------------------------------------------------------------------------|

214)
e|--------------------------------------------------------------------------------------------|
B|---2---2---2---2---2---2---2---2---2---2---2---2-----2---2---2---2---2-----2---2---2---2----|
G|---0---0---0---0---0---0---0---0---0---0---0---0-----0---0---0---0---0-----0---0---0---0----|
D|---0---0---0---0---0---0---0---0---0---0---0---0-----0---0---0---0---0-----0---0---0---0----|
A|---4---4---4---4---4---4---4---4---4---4---4---4/5---5---5---5---5---5\4---4---4---4---4----|
E|---4---4---4---4---4---4---4---4---4---4---4---4-----4---4---4---4---4-----4---4---4---4----|

215)
e|-------0---0---0---0---0---0---0---0-0---0---0---0---0---0---0---0---0---0---0---0---0---0----|
B|-------4---4---4---4---4---4---4---4/5---5---5---5---5---4---4---4---5---5---5---4---0---0----|
G|-------2---2---2---2---2---2---2---2/4---4---4---4---4---2---2---2---4---4---4---2---0---0----|
D|---0---0---0---0---0---0---0---0---0-0---0---0---0---0---0---0---0---0---0---0---0---0---0----|
A|---0------------------------------------------------------------------------------------------|
E|---0------------------------------------------------------------------------------------------|

216)
e|---------------------------------------------------------------------------------------------|
B|---2---2---2---2---2---2---2---2---2---2---2---2-----2---2---2---2---2------2---2---2---2----|
G|---0---0---0---0---0---0---0---0---0---0---0---0-----0---0---0---0---0------0---0---0---0----|
D|---0---0---0---0---0---0---0---0---0---0---0---0-----0---0---0---0---0------0---0---0---0----|
A|---4---4---4---4---4---4---4---4---4---4---4---4-5---5---5---5---5---5--4---4---4---4---4----|
E|---4---4---4---4---4---4---4---4---4---4---4---0-----4---4---4---4---4------4---4---4---4----|

217)
e|-------0---0---0---0---0---0---0---0---0---0---0---0---0---0---0---0---0---0---0---0---0---0----|
B|-------4---4---4---4---4---4---4---4---4---4---5---5---5---5---5---5---5---5---5---7---7---7----|
G|-------2---2---2---2---2---2---2---2---2---2---4---4---4---4---4---4---4---4---4---0---0---0----|
D|---0---0---0---0---0---0---0---0---0---0---0---0---0---0---0---0---0---0---0---0---0---0---0----|
A|---0--------------------------------------------------------------------------------------------|
E|---0--------------------------------------------------------------------------------------------|

218)
e|---0---0---0---0---0---0---0---0---0---0---0---0---0---0---0---0---0---0---0---0---0---0---0----0----0----|
B|---7---7---7---7---7---7---7---7---7---7---9---9---9---9---9---9---9---9---9---9---9---9---12---12---12---|
G|---5---5---5---5---5---5---5---5---5---5---0---0---0---7---7---7---7---7---7---7---7---7---0----0----0----|
D|---0---0---0---0---0---0---0---0---0---0---0---0---0---0---0---0---0---0---0---0---0---0---0----0----0----|
A|----------------------------------------------------------------------------------------------------------|
E|----------------------------------------------------------------------------------------------------------|

219)
e|--0----0----0----0----0----0----0----0----0----0----0----0----0----0----0----0----0----0----0----0----0---|
B|--12---12---12---12---12---12---12---12---12---12---12---12---12---12---12---12---12---12---12---12---12--|
G|--10---10---10---10---10---10---10---10---10---10---10---10---10---10---10---10---10---10---10---10---10--|
D|--0----0----0----0----0----0----0----0----0----0----0----0----0----0----0----0----0----0----0----0----0---|
A|----------------------------------------------------------------------------------------------------------|
E|----------------------------------------------------------------------------------------------------------|

Strum fast

220)
e|-0----0----0---15---15---15---15---15---15---15---15---15---15---15---15---15---15---15---15---15---15--15|
B|-14---14---14--14---14---14---14---14---14---14---14---14---14---14---14---14---14---14---14---14---14--14|
G|-0----0----0---12---12---12---12---12---12---12---12---12---12---12---12---12---12---12---12---12---12--12|
D|-0----0----0---0----0----0----0----0----0----0----0----0----0----0----0----0----0----0----0----0----0---0-|
A|---------------0----0----0----0----0----0----0----0----0----0----0----0----0----0----0----0----0----0---0-|
E|---------------0----0----0----0----0----0----0----0----0----0----0----0----0----0----0----0----0----0---0-|

221)
e|-15---15---15---15---15---15---15---15---15---15---15---15---15---15---15---15---15---15---15---15--0-0-0-|
B|-14---14---14---14---14---14---14---14---14---14---14---14---14---14---14---14---14---14---14---14--0-0-0-|
G|-12---12---12---12---12---12---12---12---12---12---12---12---12---12---12---12---12---12---12---12--0-0-0-|
D|-0----0----0----0----0----0----0----0----0----0----0----0----0----0----0----0----0----0----0----0---0-0-0-|
A|-0----0----0----0----0----0----0----0----0----0----0----0----0----0----0----0----0----0----0----0---0-0-0-|
E|-0----0----0----0----0----0----0----0----0----0----0----0----0----0----0----0----0----0----0----0---0-0-0-|


Now for the big finish

222)
e|---0---0---0---0---0---0---X---X---X---X---X---X---0---0---0---0---0---0---0---0---0---0---0---0---|
B|---0---0---0---0---0---0---X---X---X---X---X---X---0---0---0---0---0---0---0---0---0---0---0---0---|
G|---0---0---0---0---0---0---X---X---X---X---X---X---0---0---0---0---0---0---0---0---0---0---0---0---|
D|---0---0---0---0---0---0---X---X---X---X---X---X---0---0---0---0---0---0---5---5---5---5---5---5---|
A|---0---0---0---0---0---0---X---X---X---X---X---X---0---0---0---0---0---0---5---5---5---5---5---5---|
E|---0---0---0---0---0---0---X---X---X---X---X---X---0---0---0---0---0---0---5---5---5---5---5---5---|

223)
e|---0---0---0---0---0---0---X---X---X---X---X---X---0---0---0---0---0---0---0---0---0---0---0---0---|
B|---0---0---0---0---0---0---X---X---X---X---X---X---0---0---0---0---0---0---0---0---0---0---0---0---|
G|---0---0---0---0---0---0---X---X---X---X---X---X---0---0---0---0---0---0---0---0---0---0---0---0---|
D|---0---0---0---0---0---0---X---X---X---X---X---X---0---0---0---0---0---0---7---7---7---7---7---7---|
A|---0---0---0---0---0---0---X---X---X---X---X---X---0---0---0---0---0---0---7---7---7---7---7---7---|
E|---0---0---0---0---0---0---X---X---X---X---X---X---0---0---0---0---0---0---7---7---7---7---7---7---|

224)
e|---0---0---0---0---0---0---X---X---X---X---X---X---0---0---0---0---0---0---0---0---0---0---0---0---|
B|---0---0---0---0---0---0---X---X---X---X---X---X---0---0---0---0---0---0---0---0---0---0---0---0---|
G|---0---0---0---0---0---0---X---X---X---X---X---X---0---0---0---0---0---0---0---0---0---0---0---0---|
D|---0---0---0---0---0---0---X---X---X---X---X---X---0---0---0---0---0---0---5---5---5---5---5---5---|
A|---0---0---0---0---0---0---X---X---X---X---X---X---0---0---0---0---0---0---5---5---5---5---5---5---|
E|---0---0---0---0---0---0---X---X---X---X---X---X---0---0---0---0---0---0---5---5---5---5---5---5---|

225)
e|---0---0---0---0---0---0---0---0---0---0---0---0---0---0---0---0---0---0---0---0---0----|
B|---0---0---0---0---0---0---0---0---0---0---0---0---5---5---5---5---5---5---4---4---4----|
G|---0---0---0---0---0---0---0---0---0---0---0---0---0---0---0---0---0---0---0---0---0----|
D|---0---0---0---0---0---0---7---7---7---7---7---7---0---0---0---0---0---0---0---0---0----|
A|---0---0---0---0---0---0---7---7---7---7---7---7---0---0---0---0---0---0---0---0---0----|
E|---0---0---0---0---0---0---7---7---7---7---7---7---0---0---0---0---0---0---0---0---0----|

************************************
| *   Harmonic
| x   Dead note
| (n) Ghost note
| h   Hammer-on
| p   Pull-off
| /   Slide up
| \   Slide down
| ~   Vibrato
************************************

            
            
Suggest correction
Creating personal tab
Creating personal tab
You can edit any tab online and save it as your Personal.

You can edit, replace or remove any tab part or add personal notes – all changes will be seen only by you.

Personal tabs can be accessed anytime from any device, even offline.
Learn more »
comments
print report bad tab
1 comment total.
0 reply
Bones13 10 Aug 26, 2016 10:44 PM

Ive always been determined to learn this, then I listen to it...

guest
You may want to rate the tab now too:
select rating
Wanna post a correction for this tab? Suggest correction