Oops, an error
Loading. Please wait.

Funky Tonight bass

version 3
version 3

Whole song

Interactive

571 views 1 this week
2 commentsread comments
1 2 3 4 5
3 more votes to show rating
add to favorites
×
Save as Personal and add changes to this tab that will be seen only by you. Learn more ›
×
You can save this tab as Personal to edit and correct it or add notes. All changes will be seen only by you. Learn more »
launch autoscroll
font size
0
reset
guitar tuner
edit
Autoscroll
slow
fast
+/-
esc
set tempo
stop
Author
Difficulty
-----------------------------------------------------------------------------
                             Funky Tonight - John Butler Trio
-----------------------------------------------------------------------------

Tabbed by: Country Bass
E-mail: aaron.white8@education.nsw.gov.au

Tuning: Standard

Verse

G|--------------------|--------------------|
D|------5-------------|------5-----7-5-----|
A|-7--7----7-5--5-6-7-|-7--7---7-5-----5-7-|
E|--------------------|--------------------|

Chorus

|---------------------|    |-----------------|
|---------------------| x3 |-----------------|
|-5h7--4h5------------|    |-5h7--4h5--------|
|-----------3h5--3-0--|    |-----------3h5~--|

interlude
|------------------------------------------------|
|------------------------------------------------|
|------------------------------------------------|
|-1-1---1-1---1-1---1-1---1-1---1-1---1-1---1-1--|

Bass Solo/Bridge

add a little variation throughout the bridge

|----------12--------------------------12-------------|
|-12-13-14----14-12----12-13--12-13-14-------12-13-14-| 
|-------------------14--------------------14----------| 
|-----------------------------------------------------|



| /  slide up
| \  slide down
| h  hammer-on
| p  pull-off
| ~  vibrato
| +  harmonic
| x  Mute note
=============================================================================

            
            
Suggest correction
Creating personal tab
Creating personal tab
You can edit any tab online and save it as your Personal.

You can edit, replace or remove any tab part or add personal notes – all changes will be seen only by you.

Personal tabs can be accessed anytime from any device, even offline.
Learn more »
Give kudos to tab author, rate the tab!
1 2 3 4 5
comments
print report bad tab
2 comments total.
0 reply
Country Bass 2,969 Oct 04, 2013 04:31 PM

Sorry, the interlude sounds better when you play a G rather than a F
so this is more correct

|------------------------------------------------|
|------------------------------------------------|
|------------------------------------------------|
|-3-3---3-3---3-3---3-3---3-3---3-3---3-3---3-3--|

0 reply
Country Bass 2,969 Oct 19, 2013 01:36 PM

Sorry, play E's not G's

|-0-0---0-0--

guest
You may want to rate the tab now too:
select rating
Wanna post a correction for this tab? Suggest correction