Oops, an error
Loading. Please wait.

Losing You tab

version 1
version 1

Whole song

Interactive

67,121 views 15 this week
10 commentsread comments
1 2 3 4 5
x 5
add to favorites
×
Save as Personal and add changes to this tab that will be seen only by you. Learn more ›
×
You can save this tab as Personal to edit and correct it or add notes. All changes will be seen only by you. Learn more »
launch autoscroll
font size
0
reset
how to read this tab
guitar tuner
edit
Autoscroll
slow
fast
+/-
esc
set tempo
stop
Author
-------------------------------------------------------------------------------
                             Losing You - John Butler Trio
-------------------------------------------------------------------------------

Tabbed by:
Email:

Tuning:Standard but the E is tuned don to C# (semi-tone down)

|---0-----0---0---0------0---0-----0---0----0-----0---0---0-----0---0---0---0-|
|--------------------------3---3h5---3--------3h5---3-------------------------|
|-----------0---2(0)-2h4--------------------------------4---2h4---2---0-------|
|-----0h2-----------------------------------------------------------------2---|
|-----------------------------------------3-----------------------------------|
|-0---------------------------------------------------------------------------|

|---0-----0---0---0--------------0---0---------------0-----0---0---0---0-|
|------------------------3-------------3h5p3p0-3p0-----------------------|
|-----------0---2(0)-2h4---4-0---------------------0---2h4---2---0-------|
|-----0h2------------------------------------------------------------2---|
|----------------------------------3-------------------------------------|
|-3----------------------------0-----------------------------------------|

|---0-----0---0---0---0-----0---0---|
|-----3h5---3-----------3h5---3-----|
|---------------4-----------------0-|
|-0---------------------------------|
|-------------------3---------------|
|-----------------------------------|

|---0-----0---0---0------0---0---0---0-|
|--------------------------------------|
|-----------0---2(0)-2h4---2---0-------|
|-----0h2--------------------------2---|
|--------------------------------------|
|-3------------------------------------|

|---0-----0---0---0------0---0-----0---0-|
|----------------------------------------|
|-----------0---2(0)-------0---0h2---0---|
|-----0h2------------0h2-----------------|
|----------------------------------------|
|-3--------------------------------------|

            
            
Suggest correction
Creating personal tab
Creating personal tab
You can edit any tab online and save it as your Personal.

You can edit, replace or remove any tab part or add personal notes – all changes will be seen only by you.

Personal tabs can be accessed anytime from any device, even offline.
Learn more »
comments
print report bad tab
10 comments total. Showing first comments.
0 reply
guitar7 103 Apr 29, 2007 02:27 AM

its good, but the actual tuning is standard with the high e tuned down to a c#. so yeah, u play it as an open then.

0 reply
leo_monkey 429 May 04, 2007 01:23 AM

ok thanks ill update it as soon as possible and thanks for actually posting the comment

0 reply
mapeterz 537 Aug 11, 2007 02:26 AM

Im not sure if the tuning is completely correct.. is it not tune e down to a D and then tune half a step down?

guest
You may want to rate the tab now too:
select rating
Wanna post a correction for this tab? Suggest correction